  0
SECTION
  2
HEADER
  9
$ACADVER
  1
AC1021
  9
$DWGCODEPAGE
  3
ANSI_1252
  9
$EXTMAX
 10
420.0
 20
594.0
 30
0.0
  9
$EXTMIN
 10
0.0
 20
0.0
 30
0.0
  9
$LIMMIN
 10
0.0
 20
0.0
  9
$LIMMAX
 10
420.0
 20
594.0
  9
$VIEWCTR
 10
210.0
 20
297.0
  9
$VIEWSIZE
 40
594.0
  9
$CLAYER
  8
0
  9
$LTSCALE
 40
38.72
  9
$CELTYPE
  6
BYLAYER
  9
$DIMSCALE
 40
1.0
  9
$DIMASZ
 40
7.0
  9
$DIMEXO
 40
4.4
  9
$DIMDLI
 40
26.752
  9
$DIMEXE
 40
12.672
  9
$DIMCEN
 40
6.336
  9
$DIMLFAC
 40
1.0
  9
$DIMBLK
  1
_FILLED
  9
$DIMTXT
 40
6.0
  9
$DIMTOL
 70
1
  9
$DIMLIM
 70
0
  9
$DIMTFAC
 40
1.0
  9
$DIMTP
 40
0.01
  9
$DIMTM
 40
0.01
  9
$PDMODE
 70
3
  9
$PDSIZE
 40
8.0
  9
$HANDSEED
  5
605
  9
$TILEMODE
 70
1
  9
$MEASUREMENT
 70
1
  9
$INSUNITS
 70
4
  0
ENDSEC
  0
SECTION
  2
CLASSES
  0
CLASS
  1
ACDBDICTIONARYWDFLT
  2
AcDbDictionaryWithDefault
  3
AutoCAD 2000
 90
0
 91
1
280
0
281
0
  0
CLASS
  1
ACDBPLACEHOLDER
  2
AcDbPlaceHolder
  3
AutoCAD 2000
 90
0
 91
1
280
0
281
0
  0
CLASS
  1
LAYOUT
  2
AcDbLayout
  3
AutoCAD 2000
 90
0
 91
0
280
0
281
0
  0
CLASS
  1
TABLESTYLE
  2
AcDbTableStyle
  3
ObjectDBX Classes
 90
2047
 91
1
280
0
281
0
  0
CLASS
  1
ACAD_TABLE
  2
AcDbTable
  3
ObjectDBX Classes
 90
1025
 91
1
280
0
281
1
  0
ENDSEC
  0
SECTION
  2
TABLES
  0
TABLE
  2
VPORT
  5
8
100
AcDbSymbolTable
 70
2
  0
VPORT
  5
1F4
100
AcDbSymbolTableRecord
100
AcDbViewportTableRecord
  2
*ACTIVE
 70
0
 10
0.0
 20
0.0
 11
1.0
 21
1.0
 12
210.0
 22
297.0
 13
0.0
 23
0.0
 14
1.0
 24
1.0
 15
0.0
 25
0.0
 16
0.0
 26
0.0
 36
1.0
 17
0.0
 27
0.0
 37
0.0
 40
594.0
 41
0.7070707071
 42
50.0
 43
0.0
 44
0.0
 50
0.0
 51
0.0
 71
0
 72
100
 73
1
 74
1
 75
0
 76
0
 77
0
 78
0
  0
ENDTAB
  0
TABLE
  2
LTYPE
  5
5
100
AcDbSymbolTable
 70
6
  0
LTYPE
  5
14
100
AcDbSymbolTableRecord
100
AcDbLinetypeTableRecord
  2
BYBLOCK
 70
0
  3

 72
65
 73
0
 40
0.0
  0
LTYPE
  5
15
100
AcDbSymbolTableRecord
100
AcDbLinetypeTableRecord
  2
BYLAYER
 70
0
  3

 72
65
 73
0
 40
0.0
  0
LTYPE
  5
16
100
AcDbSymbolTableRecord
100
AcDbLinetypeTableRecord
  2
CONTINUOUS
 70
64
  3
Solid line
 72
65
 73
0
 40
0.0
  0
LTYPE
  5
1F5
100
AcDbSymbolTableRecord
100
AcDbLinetypeTableRecord
  2
CENTER
 70
64
  3
____ _ ____ _ ____ _ ____ _ ____ _ ____ _ ____
 72
65
 73
4
 40
0.6
 49
0.375
 74
0
 49
-0.075
 74
0
 49
0.075
 74
0
 49
-0.075
 74
0
  0
LTYPE
  5
1F6
100
AcDbSymbolTableRecord
100
AcDbLinetypeTableRecord
  2
HIDDEN
 70
64
  3
- - - - - - - - - - - - - - - - - - - -
 72
65
 73
2
 40
0.2
 49
0.1
 74
0
 49
-0.1
 74
0
  0
LTYPE
  5
1F7
100
AcDbSymbolTableRecord
100
AcDbLinetypeTableRecord
  2
PHANTOM
 70
64
  3
_____ _ _ _____ _ _ _____ _ _ _____
 72
65
 73
6
 40
0.8
 49
0.45
 74
0
 49
-0.05
 74
0
 49
0.1
 74
0
 49
-0.05
 74
0
 49
0.1
 74
0
 49
-0.05
 74
0
  0
LTYPE
  5
1F8
100
AcDbSymbolTableRecord
100
AcDbLinetypeTableRecord
  2
DOT
 70
64
  3
. . . . . . . . . . . . . . . . . . . .
 72
65
 73
2
 40
0.2
 49
0.1
 74
0
 49
-0.1
 74
0
  0
LTYPE
  5
1F9
100
AcDbSymbolTableRecord
100
AcDbLinetypeTableRecord
  2
DASHED
 70
64
  3
- - - - - - - - - - - - - - - - - - - -
 72
65
 73
2
 40
0.2
 49
0.1
 74
0
 49
-0.1
 74
0
  0
ENDTAB
  0
TABLE
  2
LAYER
  5
2
100
AcDbSymbolTable
 70
36
  0
LAYER
  5
10
100
AcDbSymbolTableRecord
100
AcDbLayerTableRecord
  2
0
 70
0
 62
7
  6
CONTINUOUS
370
-3
390
F
  0
LAYER
  5
1FA
100
AcDbSymbolTableRecord
100
AcDbLayerTableRecord
  2
DEFAULT_1
 70
0
 62
7
  6
CENTER
370
-3
390
F
  0
LAYER
  5
1FB
100
AcDbSymbolTableRecord
100
AcDbLayerTableRecord
  2
DEFAULT_2
 70
0
 62
8
  6
HIDDEN
370
-3
390
F
  0
LAYER
  5
1FC
100
AcDbSymbolTableRecord
100
AcDbLayerTableRecord
  2
DEFAULT_3
 70
0
 62
7
  6
PHANTOM
370
-3
390
F
  0
LAYER
  5
1FD
100
AcDbSymbolTableRecord
100
AcDbLayerTableRecord
  2
01___PRT_ALL_DTM_PLN
 70
0
 62
7
  6
CONTINUOUS
370
-3
390
F
  0
LAYER
  5
1FE
100
AcDbSymbolTableRecord
100
AcDbLayerTableRecord
  2
01___PRT_DEF_DTM_PLN
 70
0
 62
7
  6
CONTINUOUS
370
-3
390
F
  0
LAYER
  5
1FF
100
AcDbSymbolTableRecord
100
AcDbLayerTableRecord
  2
02___PRT_ALL_AXES
 70
0
 62
7
  6
CONTINUOUS
370
-3
390
F
  0
LAYER
  5
200
100
AcDbSymbolTableRecord
100
AcDbLayerTableRecord
  2
03___PRT_ALL_CURVES
 70
0
 62
7
  6
CONTINUOUS
370
-3
390
F
  0
LAYER
  5
201
100
AcDbSymbolTableRecord
100
AcDbLayerTableRecord
  2
04___PRT_ALL_DTM_PNT
 70
0
 62
7
  6
CONTINUOUS
370
-3
390
F
  0
LAYER
  5
202
100
AcDbSymbolTableRecord
100
AcDbLayerTableRecord
  2
05___PRT_ALL_DTM_CSYS
 70
0
 62
7
  6
CONTINUOUS
370
-3
390
F
  0
LAYER
  5
203
100
AcDbSymbolTableRecord
100
AcDbLayerTableRecord
  2
05___PRT_DEF_DTM_CSYS
 70
0
 62
7
  6
CONTINUOUS
370
-3
390
F
  0
LAYER
  5
204
100
AcDbSymbolTableRecord
100
AcDbLayerTableRecord
  2
06___PRT_ALL_SURFS
 70
0
 62
7
  6
CONTINUOUS
370
-3
390
F
  0
LAYER
  5
205
100
AcDbSymbolTableRecord
100
AcDbLayerTableRecord
  2
new_view_9_VBL0
 70
0
 62
7
  6
CONTINUOUS
370
-3
390
F
  0
LAYER
  5
206
100
AcDbSymbolTableRecord
100
AcDbLayerTableRecord
  2
178G5006_PBL1
 70
0
 62
7
  6
CONTINUOUS
370
-3
390
F
  0
LAYER
  5
207
100
AcDbSymbolTableRecord
100
AcDbLayerTableRecord
  2
unten_11_VBL2
 70
0
 62
7
  6
CONTINUOUS
370
-3
390
F
  0
LAYER
  5
208
100
AcDbSymbolTableRecord
100
AcDbLayerTableRecord
  2
178G5006_PBL3
 70
0
 62
7
  6
CONTINUOUS
370
-3
390
F
  0
ENDTAB
  0
TABLE
  2
STYLE
  5
3
100
AcDbSymbolTable
 70
1
  0
STYLE
  5
11
100
AcDbSymbolTableRecord
100
AcDbTextStyleTableRecord
  2
STANDARD
 70
0
 40
0.0
 41
0.6
 50
0.0
 71
0
 42
0.2
  3
txt
  4

  0
STYLE
  5
209
100
AcDbSymbolTableRecord
100
AcDbTextStyleTableRecord
  2
TEXTSTYLE_1
 70
0
 40
0.0
 41
0.8
 50
0.0
 71
0
 42
0.2
  3
gdt
  4

  0
STYLE
  5
20A
100
AcDbSymbolTableRecord
100
AcDbTextStyleTableRecord
  2
TEXTSTYLE_2
 70
0
 40
0.0
 41
0.6
 50
0.0
 71
0
 42
0.2
  3
txt
  4

  0
STYLE
  5
20B
100
AcDbSymbolTableRecord
100
AcDbTextStyleTableRecord
  2
TEXTSTYLE_3
 70
0
 40
0.0
 41
1.0
 50
0.0
 71
0
 42
0.2
  3
univots.ttf
  4

  0
ENDTAB
  0
TABLE
  2
VIEW
  5
6
100
AcDbSymbolTable
 70
0
  0
ENDTAB
  0
TABLE
  2
UCS
  5
7
100
AcDbSymbolTable
 70
0
  0
ENDTAB
  0
TABLE
  2
APPID
  5
9
100
AcDbSymbolTable
 70
1
  0
APPID
  5
20C
100
AcDbSymbolTableRecord
100
AcDbRegAppTableRecord
  2
ACAD
 70
0
  0
ENDTAB
  0
TABLE
  2
BLOCK_RECORD
  5
1
100
AcDbSymbolTable
 70
0
  0
BLOCK_RECORD
  5
20D
100
AcDbSymbolTableRecord
100
AcDbBlockTableRecord
  2
*Model_Space
  0
BLOCK_RECORD
  5
20E
100
AcDbSymbolTableRecord
100
AcDbBlockTableRecord
  2
*Paper_Space
  0
BLOCK_RECORD
  5
20F
100
AcDbSymbolTableRecord
100
AcDbBlockTableRecord
  2
SYMBOL_BL0
  0
BLOCK_RECORD
  5
210
100
AcDbSymbolTableRecord
100
AcDbBlockTableRecord
  2
NEW_VIEW_9_VBL0
  0
BLOCK_RECORD
  5
211
100
AcDbSymbolTableRecord
100
AcDbBlockTableRecord
  2
178G5006_PBL1
  0
BLOCK_RECORD
  5
212
100
AcDbSymbolTableRecord
100
AcDbBlockTableRecord
  2
UNTEN_11_VBL2
  0
BLOCK_RECORD
  5
213
100
AcDbSymbolTableRecord
100
AcDbBlockTableRecord
  2
178G5006_PBL3
  0
BLOCK_RECORD
  5
214
100
AcDbSymbolTableRecord
100
AcDbBlockTableRecord
  2
*T1
  0
ENDTAB
  0
TABLE
  2
DIMSTYLE
  5
A
100
AcDbSymbolTable
 70
1
100
AcDbDimStyleTable
 71
0
  0
DIMSTYLE
105
215
100
AcDbSymbolTableRecord
100
AcDbDimStyleTableRecord
  2
STANDARD
 70
0
  3

  4

 40
1.0
 41
7.0
 42
0.0625
 43
0.38
 44
0.18
 45
0.0
 46
0.0
 47
0.01
 48
0.01
140
6.0
141
0.09
142
0.0
143
25.4
144
1.0
145
0.0
146
1.0
147
0.09
 71
1.0
 72
0.0
 73
0
 74
0
 75
0
 76
0
 77
1
 78
8
170
0
171
2
172
0
173
0
174
0
175
0
176
0
177
0
178
0
270
2
271
2
272
2
273
2
274
2
275
0
280
0
281
0
282
0
283
1
284
8
285
0
286
0
287
3
288
0
340
11
  0
ENDTAB
  0
ENDSEC
  0
SECTION
  2
BLOCKS
  0
BLOCK
  5
20
100
AcDbEntity
  8
0
100
AcDbBlockBegin
  2
*Model_Space
 70
0
 10
0.0
 20
0.0
 30
0.0
  3
*Model_Space
  1

  0
ENDBLK
  5
21
100
AcDbEntity
  8
0
100
AcDbBlockEnd
  0
BLOCK
  5
1C
100
AcDbEntity
  8
0
100
AcDbBlockBegin
  2
*Paper_Space
 70
0
 10
0.0
 20
0.0
 30
0.0
  3
*Paper_Space
  1

  0
ENDBLK
  5
1D
100
AcDbEntity
  8
0
100
AcDbBlockEnd
  0
BLOCK
  5
216
100
AcDbEntity
  8
0
100
AcDbBlockBegin
 62
2
  6
CONTINUOUS
  2
SYMBOL_BL0
 70
64
 10
220.0
 20
72.000897183
  3
SYMBOL_BL0
  1

  0
TEXT
  5
217
100
AcDbEntity
  8
0
100
AcDbText
 62
2
  6
CONTINUOUS
 10
282.95743125
 20
116.761842183
  7
TEXTSTYLE_3
 40
3.0
  1
 
 41
1.0
 72
0
100
AcDbText
  0
TEXT
  5
218
100
AcDbEntity
  8
0
100
AcDbText
 62
2
  6
CONTINUOUS
 10
373.61798805
 20
116.974731783
  7
TEXTSTYLE_3
 40
3.0
  1
 
 41
1.0
 72
0
100
AcDbText
  0
TEXT
  5
219
100
AcDbEntity
  8
0
100
AcDbText
 62
2
  6
CONTINUOUS
 10
283.19870613
 20
49.399517703
  7
TEXTSTYLE_3
 40
3.0
  1
 
 41
1.0
 72
0
100
AcDbText
  0
TEXT
  5
21A
100
AcDbEntity
  8
0
100
AcDbText
 62
2
  6
CONTINUOUS
 10
372.2273390505
 20
117.620264608
  7
TEXTSTYLE_3
 40
3.0
  1
Mass [kg]
 41
1.0
 72
0
100
AcDbText
  0
TEXT
  5
21B
100
AcDbEntity
  8
0
100
AcDbText
 62
2
  6
CONTINUOUS
 10
282.346551469
 20
50.7148406829
  7
TEXTSTYLE_3
 40
3.0
  1
Number
 41
1.0
 72
0
100
AcDbText
  0
TEXT
  5
21C
100
AcDbEntity
  8
0
100
AcDbText
 62
2
  6
CONTINUOUS
 10
282.0546131351
 20
117.7302535703
  7
TEXTSTYLE_3
 40
3.0
  1
Material
 41
1.0
 72
0
100
AcDbText
  0
TEXT
  5
21D
100
AcDbEntity
  8
0
100
AcDbText
 62
2
  6
CONTINUOUS
 10
341.6040137555
 20
117.517544186
  7
TEXTSTYLE_3
 40
3.0
  1
Material-No.
 41
1.0
 72
0
100
AcDbText
  0
TEXT
  5
21E
100
AcDbEntity
  8
0
100
AcDbText
 62
2
  6
CONTINUOUS
 10
44.3291330324
 20
118.1777387991
  7
TEXTSTYLE_3
 40
3.0
  1
Surface:
 41
1.0
 72
0
100
AcDbText
  0
TEXT
  5
21F
100
AcDbEntity
  8
0
100
AcDbText
 62
2
  6
CONTINUOUS
 10
43.8534762005
 20
107.3892067498
  7
TEXTSTYLE_3
 40
3.0
  1
General tolerances:
 41
1.0
 72
0
100
AcDbText
  0
TEXT
  5
220
100
AcDbEntity
  8
0
100
AcDbText
 62
2
  6
CONTINUOUS
 10
172.0392201834
 20
117.9632825041
  7
TEXTSTYLE_3
 40
3.0
  1
Type of Dokument
 41
1.0
 72
0
100
AcDbText
  0
TEXT
  5
221
100
AcDbEntity
  8
0
100
AcDbText
 62
2
  6
CONTINUOUS
 10
172.0392201834
 20
111.7632825041
  7
TEXTSTYLE_3
 40
5.0
  1
 
 41
1.0
 72
0
100
AcDbText
  0
TEXT
  5
222
100
AcDbEntity
  8
0
100
AcDbText
 62
2
  6
CONTINUOUS
 10
44.975
 20
46.000897183
  7
TEXTSTYLE_3
 40
4.0
  1
Approver
 41
1.0
 72
0
100
AcDbText
  0
TEXT
  5
223
100
AcDbEntity
  8
0
100
AcDbText
 62
2
  6
CONTINUOUS
 10
44.975
 20
62.000897183
  7
TEXTSTYLE_3
 40
4.0
  1
Issued Resp.
 41
1.0
 72
0
100
AcDbText
  0
TEXT
  5
224
100
AcDbEntity
  8
0
100
AcDbText
 62
2
  6
CONTINUOUS
 10
44.975
 20
78.000897183
  7
TEXTSTYLE_3
 40
4.0
  1
Drawn by
 41
1.0
 72
0
100
AcDbText
  0
TEXT
  5
225
100
AcDbEntity
  8
0
100
AcDbText
 62
2
  6
CONTINUOUS
 10
93.3813038389
 20
93.8267209682
  7
TEXTSTYLE_3
 40
4.0
  1
Date
 41
1.0
 72
0
100
AcDbText
  0
TEXT
  5
226
100
AcDbEntity
  8
0
100
AcDbText
 62
2
  6
CONTINUOUS
 10
137.3400488317
 20
93.4783685387
  7
TEXTSTYLE_3
 40
4.0
  1
Name
 41
1.0
 72
0
100
AcDbText
  0
TEXT
  5
227
100
AcDbEntity
  8
0
100
AcDbText
 62
2
  6
CONTINUOUS
 10
52.975
 20
118.0008971831
  7
TEXTSTYLE_3
 40
4.0
  1
 
 41
1.0
 72
0
100
AcDbText
  0
TEXT
  5
228
100
AcDbEntity
  8
0
100
AcDbText
 62
2
  6
CONTINUOUS
 10
282.0
 20
96.500897183
  7
TEXTSTYLE_3
 40
3.0
  1
Designation
 41
1.0
 72
0
100
AcDbText
  0
TEXT
  5
229
100
AcDbEntity
  8
0
100
AcDbText
 62
2
  6
CONTINUOUS
 10
42.975
 20
34.000897183
  7
TEXTSTYLE_3
 40
4.0
  1
Confidential:  Property of Danfoss A/S, Nordborg, Denmark.
 41
1.0
 72
0
100
AcDbText
  0
TEXT
  5
22A
100
AcDbEntity
  8
0
100
AcDbText
 62
2
  6
CONTINUOUS
 10
42.975
 20
28.000897183
  7
TEXTSTYLE_3
 40
4.0
  1
Not to be handed over to, copied or used by third party. Two- or three
 41
1.0
 72
0
100
AcDbText
  0
TEXT
  5
22B
100
AcDbEntity
  8
0
100
AcDbText
 62
2
  6
CONTINUOUS
 10
42.975
 20
22.000897183
  7
TEXTSTYLE_3
 40
4.0
  1
dimensional reproduction of contents to be authorized by Danfoss A/S.
 41
1.0
 72
0
100
AcDbText
  0
TEXT
  5
22C
100
AcDbEntity
  8
0
100
AcDbText
 62
2
  6
CONTINUOUS
 10
290.9695817491
 20
34.0008971831
  7
TEXTSTYLE_3
 40
3.0
  1
Size
 41
1.0
 72
0
100
AcDbText
  0
TEXT
  5
22D
100
AcDbEntity
  8
0
100
AcDbText
 62
2
  6
CONTINUOUS
 10
333.4942965781
 20
34.0008971831
  7
TEXTSTYLE_3
 40
3.0
  1
Scale
 41
1.0
 72
0
100
AcDbText
  0
TEXT
  5
22E
100
AcDbEntity
  8
0
100
AcDbText
 62
2
  6
CONTINUOUS
 10
379.9581749051
 20
34.0008971831
  7
TEXTSTYLE_3
 40
3.0
  1
Sheet
 41
1.0
 72
0
100
AcDbText
  0
TEXT
  5
22F
100
AcDbEntity
  8
0
100
AcDbText
 62
2
  6
CONTINUOUS
 10
371.7357431502
 20
50.6967504415
  7
TEXTSTYLE_3
 40
3.0
  1
Revision
 41
1.0
 72
0
100
AcDbText
  0
LINE
  5
230
100
AcDbEntity
  8
0
100
AcDbLine
 62
7
  6
CONTINUOUS
 10
40.0
 20
20.000897183
 11
400.0
 21
20.000897183
  0
LINE
  5
231
100
AcDbEntity
  8
0
100
AcDbLine
 62
7
  6
CONTINUOUS
 10
400.0
 20
20.000897183
 11
400.0
 21
123.9772139104
  0
LINE
  5
232
100
AcDbEntity
  8
0
100
AcDbLine
 62
7
  6
CONTINUOUS
 10
40.0
 20
124.000897183
 11
400.0
 21
124.000897183
  0
LINE
  5
233
100
AcDbEntity
  8
0
100
AcDbLine
 62
7
  6
CONTINUOUS
 10
400.0
 20
124.000897183
 11
400.0
 21
20.000897183
  0
LINE
  5
234
100
AcDbEntity
  8
0
100
AcDbLine
 62
7
  6
CONTINUOUS
 10
400.0
 20
20.000897183
 11
40.0
 21
20.000897183
  0
LINE
  5
235
100
AcDbEntity
  8
0
100
AcDbLine
 62
7
  6
CONTINUOUS
 10
40.0
 20
20.000897183
 11
40.0
 21
124.000897183
  0
LINE
  5
236
100
AcDbEntity
  8
0
100
AcDbLine
 62
7
  6
CONTINUOUS
 10
40.0
 20
56.000897183
 11
170.0
 21
56.000897183
  0
LINE
  5
237
100
AcDbEntity
  8
0
100
AcDbLine
 62
7
  6
CONTINUOUS
 10
170.0
 20
56.000897183
 11
170.0
 21
124.000897183
  0
LINE
  5
238
100
AcDbEntity
  8
0
100
AcDbLine
 62
7
  6
CONTINUOUS
 10
40.0
 20
104.000897183
 11
400.0
 21
104.000897183
  0
LINE
  5
239
100
AcDbEntity
  8
0
100
AcDbLine
 62
7
  6
CONTINUOUS
 10
280.0
 20
124.000897183
 11
280.0
 21
20.000897183
  0
LINE
  5
23A
100
AcDbEntity
  8
0
100
AcDbLine
 62
7
  6
CONTINUOUS
 10
40.0
 20
88.000897183
 11
170.0
 21
88.000897183
  0
LINE
  5
23B
100
AcDbEntity
  8
0
100
AcDbLine
 62
7
  6
CONTINUOUS
 10
40.0
 20
72.000897183
 11
170.0
 21
72.000897183
  0
LINE
  5
23C
100
AcDbEntity
  8
0
100
AcDbLine
 62
7
  6
CONTINUOUS
 10
40.0
 20
40.000897183
 11
400.0
 21
40.000897183
  0
LINE
  5
23D
100
AcDbEntity
  8
0
100
AcDbLine
 62
7
  6
CONTINUOUS
 10
170.0
 20
56.000897183
 11
170.0
 21
40.000897183
  0
LINE
  5
23E
100
AcDbEntity
  8
0
100
AcDbLine
 62
7
  6
CONTINUOUS
 10
80.0
 20
104.000897183
 11
80.0
 21
40.000897183
  0
LINE
  5
23F
100
AcDbEntity
  8
0
100
AcDbLine
 62
7
  6
CONTINUOUS
 10
120.0
 20
104.000897183
 11
120.0
 21
40.000897183
  0
LINE
  5
240
100
AcDbEntity
  8
0
100
AcDbLine
 62
7
  6
CONTINUOUS
 10
340.0
 20
124.000897183
 11
340.0
 21
104.000897183
  0
LINE
  5
241
100
AcDbEntity
  8
0
100
AcDbLine
 62
7
  6
CONTINUOUS
 10
370.0
 20
124.000897183
 11
370.0
 21
104.000897183
  0
LINE
  5
242
100
AcDbEntity
  8
0
100
AcDbLine
 62
7
  6
CONTINUOUS
 10
280.0
 20
56.000897183
 11
400.0
 21
56.000897183
  0
LINE
  5
243
100
AcDbEntity
  8
0
100
AcDbLine
 62
7
  6
CONTINUOUS
 10
370.0
 20
56.000897183
 11
370.0
 21
20.000897183
  0
LINE
  5
244
100
AcDbEntity
  8
0
100
AcDbLine
 62
7
  6
CONTINUOUS
 10
310.0
 20
40.000897183
 11
310.0
 21
20.000897183
  0
ENDBLK
  5
245
100
AcDbEntity
  8
0
  6
BYBLOCK
 62
0
100
AcDbBlockEnd
  0
BLOCK
  5
246
100
AcDbEntity
  8
new_view_9_VBL0
100
AcDbBlockBegin
  2
NEW_VIEW_9_VBL0
 70
64
 10
233.1752043242
 20
291.67391414
  3
NEW_VIEW_9_VBL0
  1

  0
INSERT
  5
247
100
AcDbEntity
  8
178G5006_PBL1
100
AcDbBlockReference
  2
178G5006_PBL1
 10
233.1752043242
 20
291.67391414
  0
ENDBLK
  5
248
100
AcDbEntity
  8
0
  6
BYBLOCK
 62
0
100
AcDbBlockEnd
  0
BLOCK
  5
249
100
AcDbEntity
  8
178G5006_PBL1
100
AcDbBlockBegin
  2
178G5006_PBL1
 70
64
 10
233.1752043242
 20
291.67391414
  3
178G5006_PBL1
  1

  0
LINE
  5
24A
100
AcDbEntity
  8
178G5006_PBL1
100
AcDbLine
 62
7
  6
CONTINUOUS
 10
105.5502043242
 20
304.1441511743
 11
105.5502043242
 21
279.1441511743
  0
LINE
  5
24B
100
AcDbEntity
  8
178G5006_PBL1
100
AcDbLine
 62
9
  6
CONTINUOUS
 10
155.5943602015
 20
269.1441511743
 11
155.5943602015
 21
314.1441511743
  0
LINE
  5
24C
100
AcDbEntity
  8
178G5006_PBL1
100
AcDbLine
 62
9
  6
CONTINUOUS
 10
172.56492295
 20
269.1441511743
 11
172.56492295
 21
314.1441511743
  0
LINE
  5
24D
100
AcDbEntity
  8
178G5006_PBL1
100
AcDbLine
 62
9
  6
CONTINUOUS
 10
189.2634077598
 20
314.1441511743
 11
189.2634077598
 21
269.1441511743
  0
LINE
  5
24E
100
AcDbEntity
  8
178G5006_PBL1
100
AcDbLine
 62
7
  6
CONTINUOUS
 10
225.1937873702
 20
269.1441511743
 11
115.5502043242
 21
269.1441511743
  0
LINE
  5
24F
100
AcDbEntity
  8
178G5006_PBL1
100
AcDbLine
 62
9
  6
CONTINUOUS
 10
201.9913298212
 20
314.1441511743
 11
201.9913298212
 21
269.1441511743
  0
LINE
  5
250
100
AcDbEntity
  8
178G5006_PBL1
100
AcDbLine
 62
7
  6
CONTINUOUS
 10
115.5502043242
 20
314.1441511743
 11
225.1937873702
 21
314.1441511743
  0
LINE
  5
251
100
AcDbEntity
  8
178G5006_PBL1
100
AcDbLine
 62
7
  6
CONTINUOUS
 10
328.0502043242
 20
355.8703140677
 11
328.0502043242
 21
343.4376111862
  0
LINE
  5
252
100
AcDbEntity
  8
178G5006_PBL1
100
AcDbLine
 62
7
  6
CONTINUOUS
 10
328.0502043242
 20
239.8506911625
 11
328.0502043242
 21
227.417988281
  0
ARC
  5
253
100
AcDbEntity
  8
178G5006_PBL1
100
AcDbCircle
 62
7
  6
CONTINUOUS
 10
313.0502043242
 20
291.6441511743
 40
70.0
100
AcDbArc
 50
81.1501169016
 51
146.79617747
  0
ARC
  5
254
100
AcDbEntity
  8
178G5006_PBL1
100
AcDbCircle
 62
7
  6
CONTINUOUS
 10
313.0502043242
 20
291.6441511743
 40
70.0
100
AcDbArc
 50
213.20382253
 51
278.8498830984
  0
ARC
  5
255
100
AcDbEntity
  8
178G5006_PBL1
100
AcDbCircle
 62
7
  6
CONTINUOUS
 10
313.0502043242
 20
291.6441511743
 40
47.75
100
AcDbArc
 50
79.0721071512
 51
280.9278928488
  0
ARC
  5
256
100
AcDbEntity
  8
178G5006_PBL1
100
AcDbCircle
 62
7
  6
CONTINUOUS
 10
225.1937873702
 20
349.1441511743
 40
35.0
100
AcDbArc
 50
270.0
 51
326.79617747
  0
ARC
  5
257
100
AcDbEntity
  8
178G5006_PBL1
100
AcDbCircle
 62
7
  6
CONTINUOUS
 10
225.1937873702
 20
234.1441511743
 40
35.0
100
AcDbArc
 50
33.20382253
 51
90.0
  0
ARC
  5
258
100
AcDbEntity
  8
178G5006_PBL1
100
AcDbCircle
 62
7
  6
CONTINUOUS
 10
128.0502043242
 20
291.6441511743
 40
12.6
100
AcDbArc
 50
4.5484783725
 51
355.4515216275
  0
ARC
  5
259
100
AcDbEntity
  8
178G5006_PBL1
100
AcDbCircle
 62
7
  6
CONTINUOUS
 10
115.5502043242
 20
304.1441511743
 40
10.0
100
AcDbArc
 50
90.0
 51
180.0
  0
ARC
  5
25A
100
AcDbEntity
  8
178G5006_PBL1
100
AcDbCircle
 62
7
  6
CONTINUOUS
 10
115.5502043242
 20
279.1441511743
 40
10.0
100
AcDbArc
 50
180.0
 51
270.0
  0
CIRCLE
  5
25B
100
AcDbEntity
  8
178G5006_PBL1
100
AcDbCircle
 62
7
  6
CONTINUOUS
 10
313.0502043242
 20
234.1441511743
 40
5.5
  0
CIRCLE
  5
25C
100
AcDbEntity
  8
178G5006_PBL1
100
AcDbCircle
 62
7
  6
CONTINUOUS
 10
284.3002043242
 20
241.8476904567
 40
5.5
  0
CIRCLE
  5
25D
100
AcDbEntity
  8
178G5006_PBL1
100
AcDbCircle
 62
7
  6
CONTINUOUS
 10
263.2537436066
 20
262.8941511743
 40
5.5
  0
CIRCLE
  5
25E
100
AcDbEntity
  8
178G5006_PBL1
100
AcDbCircle
 62
7
  6
CONTINUOUS
 10
255.5502043242
 20
291.6441511743
 40
5.5
  0
CIRCLE
  5
25F
100
AcDbEntity
  8
178G5006_PBL1
100
AcDbCircle
 62
7
  6
CONTINUOUS
 10
263.2537436066
 20
320.3941511743
 40
5.5
  0
CIRCLE
  5
260
100
AcDbEntity
  8
178G5006_PBL1
100
AcDbCircle
 62
7
  6
CONTINUOUS
 10
284.3002043242
 20
341.4406118919
 40
5.5
  0
CIRCLE
  5
261
100
AcDbEntity
  8
178G5006_PBL1
100
AcDbCircle
 62
7
  6
CONTINUOUS
 10
313.0502043242
 20
349.1441511743
 40
5.5
  0
ARC
  5
262
100
AcDbEntity
  8
178G5006_PBL1
100
AcDbCircle
 62
7
  6
CONTINUOUS
 10
323.0502043242
 20
227.417988281
 40
5.0
100
AcDbArc
 50
278.8498830984
 51
360.0
  0
ARC
  5
263
100
AcDbEntity
  8
178G5006_PBL1
100
AcDbCircle
 62
7
  6
CONTINUOUS
 10
323.0502043242
 20
355.8703140677
 40
5.0
100
AcDbArc
 50
0.0
 51
81.1501169016
  0
ARC
  5
264
100
AcDbEntity
  8
178G5006_PBL1
100
AcDbCircle
 62
7
  6
CONTINUOUS
 10
323.0502043242
 20
343.4376111862
 40
5.0
100
AcDbArc
 50
259.0721071512
 51
360.0
  0
ARC
  5
265
100
AcDbEntity
  8
178G5006_PBL1
100
AcDbCircle
 62
7
  6
CONTINUOUS
 10
323.0502043242
 20
239.8506911625
 40
5.0
100
AcDbArc
 50
0.0
 51
100.9278928488
  0
ARC
  5
266
100
AcDbEntity
  8
178G5006_PBL1
100
AcDbCircle
 62
7
  6
CONTINUOUS
 10
140.6502043242
 20
291.6441511743
 40
1.0
100
AcDbArc
 50
267.7257608137
 51
92.2742391863
  0
ENDBLK
  5
267
100
AcDbEntity
  8
0
  6
BYBLOCK
 62
0
100
AcDbBlockEnd
  0
BLOCK
  5
268
100
AcDbEntity
  8
unten_11_VBL2
100
AcDbBlockBegin
  2
UNTEN_11_VBL2
 70
64
 10
216.8002043242
 20
500.4250190514
  3
UNTEN_11_VBL2
  1

  0
INSERT
  5
269
100
AcDbEntity
  8
178G5006_PBL3
100
AcDbBlockReference
  2
178G5006_PBL3
 10
216.8002043242
 20
500.4250190514
  0
ENDBLK
  5
26A
100
AcDbEntity
  8
0
  6
BYBLOCK
 62
0
100
AcDbBlockEnd
  0
BLOCK
  5
26B
100
AcDbEntity
  8
178G5006_PBL3
100
AcDbBlockBegin
  2
178G5006_PBL3
 70
64
 10
216.8002043242
 20
500.4250190514
  3
178G5006_PBL3
  1

  0
LINE
  5
26C
100
AcDbEntity
  8
178G5006_PBL3
100
AcDbLine
 62
7
  6
CONTINUOUS
 10
105.5502043242
 20
517.9250190514
 11
105.5502043242
 21
511.9250190514
  0
LINE
  5
26D
100
AcDbEntity
  8
178G5006_PBL3
100
AcDbLine
 62
9
  6
CONTINUOUS
 10
115.5502043242
 20
517.9250190514
 11
115.5502043242
 21
511.9250190514
  0
LINE
  5
26E
100
AcDbEntity
  8
178G5006_PBL3
100
AcDbLine
 62
7
  6
CONTINUOUS
 10
168.3222822629
 20
506.6529411127
 11
185.0207670727
 21
489.9544563029
  0
LINE
  5
26F
100
AcDbEntity
  8
178G5006_PBL3
100
AcDbLine
 62
7
  6
CONTINUOUS
 10
189.2634077598
 20
494.19709699
 11
172.56492295
 21
510.8955817998
  0
LINE
  5
270
100
AcDbEntity
  8
178G5006_PBL3
100
AcDbLine
 62
7
  6
CONTINUOUS
 10
201.9913298212
 20
482.9250190514
 11
328.0502043242
 21
482.9250190514
  0
LINE
  5
271
100
AcDbEntity
  8
178G5006_PBL3
100
AcDbLine
 62
7
  6
CONTINUOUS
 10
201.9913298212
 20
488.9250190514
 11
328.0502043242
 21
488.9250190514
  0
LINE
  5
272
100
AcDbEntity
  8
178G5006_PBL3
100
AcDbLine
 62
9
  6
CONTINUOUS
 10
225.1937873702
 20
482.9250190514
 11
225.1937873702
 21
488.9250190514
  0
LINE
  5
273
100
AcDbEntity
  8
178G5006_PBL3
100
AcDbLine
 62
7
  6
CONTINUOUS
 10
105.5502043242
 20
511.9250190514
 11
155.5943602015
 21
511.9250190514
  0
LINE
  5
274
100
AcDbEntity
  8
178G5006_PBL3
100
AcDbLine
 62
7
  6
CONTINUOUS
 10
105.5502043242
 20
517.9250190514
 11
155.5943602015
 21
517.9250190514
  0
LINE
  5
275
100
AcDbEntity
  8
178G5006_PBL3
100
AcDbLine
 62
9
  6
CONTINUOUS
 10
254.4792596882
 20
482.9250190514
 11
254.4792596882
 21
488.9250190514
  0
LINE
  5
276
100
AcDbEntity
  8
178G5006_PBL3
100
AcDbLine
 62
9
  6
CONTINUOUS
 10
323.8194350934
 20
482.9250190514
 11
323.8194350934
 21
488.9250190514
  0
LINE
  5
277
100
AcDbEntity
  8
178G5006_PBL3
100
AcDbLine
 62
7
  6
CONTINUOUS
 10
328.0502043242
 20
482.9250190514
 11
328.0502043242
 21
488.9250190514
  0
ARC
  5
278
100
AcDbEntity
  8
178G5006_PBL3
100
AcDbCircle
 62
7
  6
CONTINUOUS
 10
201.9913298212
 20
506.9250190514
 40
24.0
100
AcDbArc
 50
225.0
 51
270.0
  0
ARC
  5
279
100
AcDbEntity
  8
178G5006_PBL3
100
AcDbCircle
 62
7
  6
CONTINUOUS
 10
155.5943602015
 20
493.9250190514
 40
24.0
100
AcDbArc
 50
45.0
 51
90.0
  0
ARC
  5
27A
100
AcDbEntity
  8
178G5006_PBL3
100
AcDbCircle
 62
7
  6
CONTINUOUS
 10
155.5943602015
 20
493.9250190514
 40
18.0
100
AcDbArc
 50
45.0
 51
90.0
  0
ARC
  5
27B
100
AcDbEntity
  8
178G5006_PBL3
100
AcDbCircle
 62
7
  6
CONTINUOUS
 10
201.9913298212
 20
506.9250190514
 40
18.0
100
AcDbArc
 50
225.0
 51
270.0
  0
ENDBLK
  5
27C
100
AcDbEntity
  8
0
  6
BYBLOCK
 62
0
100
AcDbBlockEnd
  0
BLOCK
  5
27D
100
AcDbEntity
  8
0
100
AcDbBlockBegin
  2
*T1
 70
1
 10
0.0
 20
0.0
  3
*T1
  1

  0
LINE
  5
27E
100
AcDbEntity
  8
0
100
AcDbLine
 62
2
  6
CONTINUOUS
 10
0.0
 20
0.0
 11
360.0
 21
0.0
  0
LINE
  5
27F
100
AcDbEntity
  8
0
100
AcDbLine
 62
2
  6
CONTINUOUS
 10
0.0
 20
0.0
 11
0.0
 21
-104.0
  0
LINE
  5
280
100
AcDbEntity
  8
0
100
AcDbLine
 62
2
  6
CONTINUOUS
 10
0.0
 20
-20.0
 11
360.0
 21
-20.0
  0
LINE
  5
281
100
AcDbEntity
  8
0
100
AcDbLine
 62
2
  6
CONTINUOUS
 10
0.0
 20
-36.0
 11
130.0
 21
-36.0
  0
LINE
  5
282
100
AcDbEntity
  8
0
100
AcDbLine
 62
2
  6
CONTINUOUS
 10
0.0
 20
-52.0
 11
130.0
 21
-52.0
  0
LINE
  5
283
100
AcDbEntity
  8
0
100
AcDbLine
 62
2
  6
CONTINUOUS
 10
0.0
 20
-68.0
 11
130.0
 21
-68.0
  0
LINE
  5
284
100
AcDbEntity
  8
0
100
AcDbLine
 62
2
  6
CONTINUOUS
 10
240.0
 20
-68.0
 11
360.0
 21
-68.0
  0
LINE
  5
285
100
AcDbEntity
  8
0
100
AcDbLine
 62
2
  6
CONTINUOUS
 10
0.0
 20
-84.0
 11
360.0
 21
-84.0
  0
LINE
  5
286
100
AcDbEntity
  8
0
100
AcDbLine
 62
2
  6
CONTINUOUS
 10
0.0
 20
-104.0
 11
360.0
 21
-104.0
  0
LINE
  5
287
100
AcDbEntity
  8
0
100
AcDbLine
 62
2
  6
CONTINUOUS
 10
40.0
 20
-20.0
 11
40.0
 21
-84.0
  0
LINE
  5
288
100
AcDbEntity
  8
0
100
AcDbLine
 62
2
  6
CONTINUOUS
 10
80.0
 20
-20.0
 11
80.0
 21
-84.0
  0
LINE
  5
289
100
AcDbEntity
  8
0
100
AcDbLine
 62
2
  6
CONTINUOUS
 10
130.0
 20
0.0
 11
130.0
 21
-84.0
  0
LINE
  5
28A
100
AcDbEntity
  8
0
100
AcDbLine
 62
2
  6
CONTINUOUS
 10
240.0
 20
0.0
 11
240.0
 21
-104.0
  0
LINE
  5
28B
100
AcDbEntity
  8
0
100
AcDbLine
 62
2
  6
CONTINUOUS
 10
270.0
 20
-84.0
 11
270.0
 21
-104.0
  0
LINE
  5
28C
100
AcDbEntity
  8
0
100
AcDbLine
 62
2
  6
CONTINUOUS
 10
300.0
 20
0.0
 11
300.0
 21
-20.0
  0
LINE
  5
28D
100
AcDbEntity
  8
0
100
AcDbLine
 62
2
  6
CONTINUOUS
 10
330.0
 20
0.0
 11
330.0
 21
-20.0
  0
LINE
  5
28E
100
AcDbEntity
  8
0
100
AcDbLine
 62
2
  6
CONTINUOUS
 10
330.0
 20
-68.0
 11
330.0
 21
-104.0
  0
LINE
  5
28F
100
AcDbEntity
  8
0
100
AcDbLine
 62
2
  6
CONTINUOUS
 10
360.0
 20
0.0
 11
360.0
 21
-104.0
  0
TEXT
  5
290
100
AcDbEntity
  8
0
100
AcDbText
 62
2
  6
CONTINUOUS
 10
2.975
 20
-6.0
  7
TEXTSTYLE_3
 40
4.0
  1
                                                   ISO 1302 Series 2
 41
1.0
 72
0
100
AcDbText
  0
TEXT
  5
291
100
AcDbEntity
  8
0
100
AcDbText
 62
2
  6
CONTINUOUS
 10
2.975
 20
-12.0
  7
TEXTSTYLE_3
 40
4.0
  1
 
 41
1.0
 72
0
100
AcDbText
  0
TEXT
  5
292
100
AcDbEntity
  8
0
100
AcDbText
 62
2
  6
CONTINUOUS
 10
2.975
 20
-18.0
  7
TEXTSTYLE_3
 40
4.0
  1
                                                   ISO 2768-m K
 41
1.0
 72
0
100
AcDbText
  0
TEXT
  5
293
100
AcDbEntity
  8
0
100
AcDbText
 62
2
  6
CONTINUOUS
 10
132.975
 20
-16.5
  7
TEXTSTYLE_3
 40
4.0
  1
SINGLE PART DRAWING
 41
1.0
 72
0
100
AcDbText
  0
TEXT
  5
294
100
AcDbEntity
  8
0
100
AcDbText
 62
2
  6
CONTINUOUS
 10
242.975
 20
-16.5
  7
TEXTSTYLE_3
 40
4.0
  1
X5CrNi18-10
 41
1.0
 72
0
100
AcDbText
  0
TEXT
  5
295
100
AcDbEntity
  8
0
100
AcDbText
 62
2
  6
CONTINUOUS
 10
302.975
 20
-16.5
  7
TEXTSTYLE_3
 40
4.0
  1
1.4301
 41
1.0
 72
0
100
AcDbText
  0
TEXT
  5
296
100
AcDbEntity
  8
0
100
AcDbText
 62
2
  6
CONTINUOUS
 10
332.975
 20
-16.5
  7
TEXTSTYLE_3
 40
4.0
  1
0.493
 41
1.0
 72
0
100
AcDbText
  0
TEXT
  5
297
100
AcDbEntity
  8
0
100
AcDbText
 62
2
  6
CONTINUOUS
 10
242.975
 20
-29.5
  7
TEXTSTYLE_3
 40
6.0
  1
 
 41
1.0
 72
0
100
AcDbText
  0
TEXT
  5
298
100
AcDbEntity
  8
0
100
AcDbText
 62
2
  6
CONTINUOUS
 10
242.975
 20
-36.7
  7
TEXTSTYLE_3
 40
6.0
  1
 
 41
1.0
 72
0
100
AcDbText
  0
TEXT
  5
299
100
AcDbEntity
  8
0
100
AcDbText
 62
2
  6
CONTINUOUS
 10
242.975
 20
-43.9
  7
TEXTSTYLE_3
 40
6.0
  1
TORQUE ARM OGD
 41
1.0
 72
0
100
AcDbText
  0
TEXT
  5
29A
100
AcDbEntity
  8
0
100
AcDbText
 62
2
  6
CONTINUOUS
 10
242.975
 20
-51.1
  7
TEXTSTYLE_3
 40
6.0
  1
 
 41
1.0
 72
0
100
AcDbText
  0
TEXT
  5
29B
100
AcDbEntity
  8
0
100
AcDbText
 62
2
  6
CONTINUOUS
 10
242.975
 20
-58.3
  7
TEXTSTYLE_3
 40
6.0
  1
DESIGN V2A
 41
1.0
 72
0
100
AcDbText
  0
TEXT
  5
29C
100
AcDbEntity
  8
0
100
AcDbText
 62
2
  6
CONTINUOUS
 10
44.608365019
 20
-46.0
  7
TEXTSTYLE_3
 40
4.0
  1
2011-09-01
 41
1.0
 72
1
 11
60.0
 21
-46.0
100
AcDbText
  0
TEXT
  5
29D
100
AcDbEntity
  8
0
100
AcDbText
 62
2
  6
CONTINUOUS
 10
90.825095057
 20
-46.0
  7
TEXTSTYLE_3
 40
4.0
  1
STOESSER
 41
1.0
 72
1
 11
105.0
 21
-46.0
100
AcDbText
  0
TEXT
  5
29E
100
AcDbEntity
  8
0
100
AcDbText
 62
2
  6
CONTINUOUS
 10
44.608365019
 20
-62.0
  7
TEXTSTYLE_3
 40
4.0
  1
2012-02-08
 41
1.0
 72
1
 11
60.0
 21
-62.0
100
AcDbText
  0
TEXT
  5
29F
100
AcDbEntity
  8
0
100
AcDbText
 62
2
  6
CONTINUOUS
 10
94.0418250951
 20
-62.0
  7
TEXTSTYLE_3
 40
4.0
  1
SIERING
 41
1.0
 72
1
 11
105.0
 21
-62.0
100
AcDbText
  0
TEXT
  5
2A0
100
AcDbEntity
  8
0
100
AcDbText
 62
2
  6
CONTINUOUS
 10
44.608365019
 20
-78.0
  7
TEXTSTYLE_3
 40
4.0
  1
2012-02-08
 41
1.0
 72
1
 11
60.0
 21
-78.0
100
AcDbText
  0
TEXT
  5
2A1
100
AcDbEntity
  8
0
100
AcDbText
 62
2
  6
CONTINUOUS
 10
85.9049429658
 20
-78.0
  7
TEXTSTYLE_3
 40
4.0
  1
FOSSELMANN
 41
1.0
 72
1
 11
105.0
 21
-78.0
100
AcDbText
  0
TEXT
  5
2A2
100
AcDbEntity
  8
0
100
AcDbText
 62
2
  6
CONTINUOUS
 10
268.3650190114
 20
-80.5
  7
TEXTSTYLE_3
 40
5.0
  1
178G5006
 41
1.0
 72
1
 11
285.0
 21
-80.5
100
AcDbText
  0
TEXT
  5
2A3
100
AcDbEntity
  8
0
100
AcDbText
 62
2
  6
CONTINUOUS
 10
254.2851711027
 20
-91.5
  7
TEXTSTYLE_3
 40
4.0
  1
 
 41
1.0
 72
1
 11
255.0
 21
-91.5
100
AcDbText
  0
TEXT
  5
2A4
100
AcDbEntity
  8
0
100
AcDbText
 62
2
  6
CONTINUOUS
 10
251.3726235741
 20
-98.7
  7
TEXTSTYLE_3
 40
4.0
  1
A4
 41
1.0
 72
1
 11
255.0
 21
-98.7
100
AcDbText
  0
TEXT
  5
2A5
100
AcDbEntity
  8
0
100
AcDbText
 62
2
  6
CONTINUOUS
 10
299.2851711027
 20
-91.5
  7
TEXTSTYLE_3
 40
4.0
  1
 
 41
1.0
 72
1
 11
300.0
 21
-91.5
100
AcDbText
  0
TEXT
  5
2A6
100
AcDbEntity
  8
0
100
AcDbText
 62
2
  6
CONTINUOUS
 10
296.0456273764
 20
-98.7
  7
TEXTSTYLE_3
 40
4.0
  1
1:2
 41
1.0
 72
1
 11
300.0
 21
-98.7
100
AcDbText
  0
TEXT
  5
2A7
100
AcDbEntity
  8
0
100
AcDbText
 62
2
  6
CONTINUOUS
 10
344.2851711027
 20
-91.5
  7
TEXTSTYLE_3
 40
4.0
  1
 
 41
1.0
 72
1
 11
345.0
 21
-91.5
100
AcDbText
  0
TEXT
  5
2A8
100
AcDbEntity
  8
0
100
AcDbText
 62
2
  6
CONTINUOUS
 10
340.1863117871
 20
-98.7
  7
TEXTSTYLE_3
 40
4.0
  1
1
 41
1.0
 72
1
 11
341.7908745247
 21
-98.7
100
AcDbText
  0
TEXT
  5
2A9
100
AcDbEntity
  8
0
100
AcDbText
 62
2
  6
CONTINUOUS
 10
343.3954372624
 20
-98.7
  7
TEXTSTYLE_3
 40
4.0
  1
/
 41
1.0
 72
1
 11
345.0
 21
-98.7
100
AcDbText
  0
TEXT
  5
2AA
100
AcDbEntity
  8
0
100
AcDbText
 62
2
  6
CONTINUOUS
 10
346.6045627376
 20
-98.7
  7
TEXTSTYLE_3
 40
4.0
  1
1
 41
1.0
 72
1
 11
348.2091254753
 21
-98.7
100
AcDbText
  0
ENDBLK
  5
2AB
100
AcDbEntity
  8
0
100
AcDbBlockEnd
  0
ENDSEC
  0
SECTION
  2
ENTITIES
  0
LWPOLYLINE
  5
2AC
100
AcDbEntity
  8
0
100
AcDbPolyline
 62
1
  6
CONTINUOUS
 90
6
 70
0
 10
255.6072534081
 20
93.7889600078
 10
256.022326528
 20
93.7783728889
 10
256.4011004232
 20
93.6446245261
 10
252.9626456265
 20
92.3089730018
 10
255.2498468857
 20
93.6837875027
 10
255.6072534081
 20
93.7889600078
  0
HATCH
  5
2AD
100
AcDbEntity
  8
0
100
AcDbHatch
 62
1
  6
CONTINUOUS
 10
0.0
 20
0.0
 30
0.0
210
0.0
220
0.0
230
1.0
  2
SOLID
 70
1
 71
1
 91
1
 92
1
 93
5
 72
1
 10
255.6072534081
 20
93.7889600078
 11
256.022326528
 21
93.7783728889
 72
1
 10
256.022326528
 20
93.7783728889
 11
256.4011004232
 21
93.6446245261
 72
1
 10
256.4011004232
 20
93.6446245261
 11
252.9626456265
 21
92.3089730018
 72
1
 10
252.9626456265
 20
92.3089730018
 11
255.2498468857
 21
93.6837875027
 72
1
 10
255.2498468857
 20
93.6837875027
 11
255.6072534081
 21
93.7889600078
 97
1
330
2AC
 75
0
 76
1
 98
1
 10
0.0
 20
0.0
  0
LWPOLYLINE
  5
2AE
100
AcDbEntity
  8
0
100
AcDbPolyline
 62
1
  6
CONTINUOUS
 90
8
 70
0
 10
257.0160618532
 20
92.1241481174
 10
250.6804357205
 20
90.3828374781
 10
252.9626456265
 20
92.3089730018
 10
256.4011004232
 20
93.6446245261
 10
256.6891744278
 20
93.4008971978
 10
256.8895303186
 20
93.0573418606
 10
257.0014291858
 20
92.6229664942
 10
257.0160618532
 20
92.1241481174
  0
HATCH
  5
2AF
100
AcDbEntity
  8
0
100
AcDbHatch
 62
1
  6
CONTINUOUS
 10
0.0
 20
0.0
 30
0.0
210
0.0
220
0.0
230
1.0
  2
SOLID
 70
1
 71
1
 91
1
 92
1
 93
7
 72
1
 10
257.0160618532
 20
92.1241481174
 11
250.6804357205
 21
90.3828374781
 72
1
 10
250.6804357205
 20
90.3828374781
 11
252.9626456265
 21
92.3089730018
 72
1
 10
252.9626456265
 20
92.3089730018
 11
256.4011004232
 21
93.6446245261
 72
1
 10
256.4011004232
 20
93.6446245261
 11
256.6891744278
 21
93.4008971978
 72
1
 10
256.6891744278
 20
93.4008971978
 11
256.8895303186
 21
93.0573418606
 72
1
 10
256.8895303186
 20
93.0573418606
 11
257.0014291858
 21
92.6229664942
 72
1
 10
257.0014291858
 20
92.6229664942
 11
257.0160618532
 21
92.1241481174
 97
1
330
2AE
 75
0
 76
1
 98
1
 10
0.0
 20
0.0
  0
LWPOLYLINE
  5
2B0
100
AcDbEntity
  8
0
100
AcDbPolyline
 62
1
  6
CONTINUOUS
 90
36
 70
0
 10
256.569931957
 20
90.3663479909
 10
256.2528287946
 20
89.702862533
 10
255.8573197731
 20
89.0044968585
 10
255.3818657976
 20
88.2736460688
 10
254.8227964137
 20
87.5087687141
 10
254.1770215372
 20
86.7043981204
 10
253.4369855175
 20
85.8587283041
 10
252.5925520571
 20
84.9717539572
 10
251.6349882936
 20
84.0449630162
 10
250.5570568498
 20
83.0774203247
 10
249.3534976261
 20
82.0598348813
 10
248.0231877272
 20
80.9764945694
 10
241.5356080618
 20
77.5715359097
 10
243.980578059
 20
81.3983616407
 10
247.2898855451
 20
81.93346839
 10
248.2889136335
 20
82.8199110167
 10
249.2260373941
 20
83.6369030319
 10
250.0665506879
 20
84.3942337485
 10
250.8105796518
 20
85.1140597034
 10
251.4618293384
 20
85.8128791931
 10
252.0059326903
 20
86.4785003175
 10
252.4528722096
 20
87.0996377464
 10
252.8417379315
 20
87.6956234868
 10
253.1949228322
 20
88.2759080963
 10
253.5112363646
 20
88.8389437403
 10
253.7412412056
 20
89.3691210642
 10
253.8486857456
 20
89.852810937
 10
253.8178643198
 20
90.2984404814
 10
253.6435248617
 20
90.6903709498
 10
252.1435341001
 20
89.5225106234
 10
248.4320536024
 20
87.8733566725
 10
250.6804357205
 20
90.3828374781
 10
257.0160618532
 20
92.1241481174
 10
256.949880242
 20
91.5801891992
 10
256.8028831236
 20
90.9934763656
 10
256.569931957
 20
90.3663479909
  0
HATCH
  5
2B1
100
AcDbEntity
  8
0
100
AcDbHatch
 62
1
  6
CONTINUOUS
 10
0.0
 20
0.0
 30
0.0
210
0.0
220
0.0
230
1.0
  2
SOLID
 70
1
 71
1
 91
1
 92
1
 93
35
 72
1
 10
256.569931957
 20
90.3663479909
 11
256.2528287946
 21
89.702862533
 72
1
 10
256.2528287946
 20
89.702862533
 11
255.8573197731
 21
89.0044968585
 72
1
 10
255.8573197731
 20
89.0044968585
 11
255.3818657976
 21
88.2736460688
 72
1
 10
255.3818657976
 20
88.2736460688
 11
254.8227964137
 21
87.5087687141
 72
1
 10
254.8227964137
 20
87.5087687141
 11
254.1770215372
 21
86.7043981204
 72
1
 10
254.1770215372
 20
86.7043981204
 11
253.4369855175
 21
85.8587283041
 72
1
 10
253.4369855175
 20
85.8587283041
 11
252.5925520571
 21
84.9717539572
 72
1
 10
252.5925520571
 20
84.9717539572
 11
251.6349882936
 21
84.0449630162
 72
1
 10
251.6349882936
 20
84.0449630162
 11
250.5570568498
 21
83.0774203247
 72
1
 10
250.5570568498
 20
83.0774203247
 11
249.3534976261
 21
82.0598348813
 72
1
 10
249.3534976261
 20
82.0598348813
 11
248.0231877272
 21
80.9764945694
 72
1
 10
248.0231877272
 20
80.9764945694
 11
241.5356080618
 21
77.5715359097
 72
1
 10
241.5356080618
 20
77.5715359097
 11
243.980578059
 21
81.3983616407
 72
1
 10
243.980578059
 20
81.3983616407
 11
247.2898855451
 21
81.93346839
 72
1
 10
247.2898855451
 20
81.93346839
 11
248.2889136335
 21
82.8199110167
 72
1
 10
248.2889136335
 20
82.8199110167
 11
249.2260373941
 21
83.6369030319
 72
1
 10
249.2260373941
 20
83.6369030319
 11
250.0665506879
 21
84.3942337485
 72
1
 10
250.0665506879
 20
84.3942337485
 11
250.8105796518
 21
85.1140597034
 72
1
 10
250.8105796518
 20
85.1140597034
 11
251.4618293384
 21
85.8128791931
 72
1
 10
251.4618293384
 20
85.8128791931
 11
252.0059326903
 21
86.4785003175
 72
1
 10
252.0059326903
 20
86.4785003175
 11
252.4528722096
 21
87.0996377464
 72
1
 10
252.4528722096
 20
87.0996377464
 11
252.8417379315
 21
87.6956234868
 72
1
 10
252.8417379315
 20
87.6956234868
 11
253.1949228322
 21
88.2759080963
 72
1
 10
253.1949228322
 20
88.2759080963
 11
253.5112363646
 21
88.8389437403
 72
1
 10
253.5112363646
 20
88.8389437403
 11
253.7412412056
 21
89.3691210642
 72
1
 10
253.7412412056
 20
89.3691210642
 11
253.8486857456
 21
89.852810937
 72
1
 10
253.8486857456
 20
89.852810937
 11
253.8178643198
 21
90.2984404814
 72
1
 10
253.8178643198
 20
90.2984404814
 11
253.6435248617
 21
90.6903709498
 72
1
 10
253.6435248617
 20
90.6903709498
 11
252.1435341001
 21
89.5225106234
 72
1
 10
252.1435341001
 20
89.5225106234
 11
248.4320536024
 21
87.8733566725
 72
1
 10
248.4320536024
 20
87.8733566725
 11
250.6804357205
 21
90.3828374781
 72
1
 10
250.6804357205
 20
90.3828374781
 11
257.0160618532
 21
92.1241481174
 72
1
 10
257.0160618532
 20
92.1241481174
 11
256.949880242
 21
91.5801891992
 72
1
 10
256.949880242
 20
91.5801891992
 11
256.8028831236
 21
90.9934763656
 72
1
 10
256.8028831236
 20
90.9934763656
 11
256.569931957
 21
90.3663479909
 97
1
330
2B0
 75
0
 76
1
 98
1
 10
0.0
 20
0.0
  0
LWPOLYLINE
  5
2B2
100
AcDbEntity
  8
0
100
AcDbPolyline
 62
1
  6
CONTINUOUS
 90
8
 70
0
 10
249.255531432
 20
86.042321932
 10
248.045545841
 20
83.9416721587
 10
243.980578059
 20
81.3983616407
 10
246.2266004701
 20
84.8513234275
 10
248.4320536024
 20
87.8733566725
 10
252.1435341001
 20
89.5225106234
 10
250.6918024971
 20
87.967339335
 10
249.255531432
 20
86.042321932
  0
HATCH
  5
2B3
100
AcDbEntity
  8
0
100
AcDbHatch
 62
1
  6
CONTINUOUS
 10
0.0
 20
0.0
 30
0.0
210
0.0
220
0.0
230
1.0
  2
SOLID
 70
1
 71
1
 91
1
 92
1
 93
7
 72
1
 10
249.255531432
 20
86.042321932
 11
248.045545841
 21
83.9416721587
 72
1
 10
248.045545841
 20
83.9416721587
 11
243.980578059
 21
81.3983616407
 72
1
 10
243.980578059
 20
81.3983616407
 11
246.2266004701
 21
84.8513234275
 72
1
 10
246.2266004701
 20
84.8513234275
 11
248.4320536024
 21
87.8733566725
 72
1
 10
248.4320536024
 20
87.8733566725
 11
252.1435341001
 21
89.5225106234
 72
1
 10
252.1435341001
 20
89.5225106234
 11
250.6918024971
 21
87.967339335
 72
1
 10
250.6918024971
 20
87.967339335
 11
249.255531432
 21
86.042321932
 97
1
330
2B2
 75
0
 76
1
 98
1
 10
0.0
 20
0.0
  0
LWPOLYLINE
  5
2B4
100
AcDbEntity
  8
0
100
AcDbPolyline
 62
1
  6
CONTINUOUS
 90
8
 70
0
 10
196.880988051
 20
87.4914253461
 10
202.8911480299
 20
87.1391924756
 10
209.8876877284
 20
89.4862352558
 10
207.3492045779
 20
85.5315780267
 10
176.9105088593
 20
83.7712151648
 10
183.8154794554
 20
85.8753736679
 10
190.5084923852
 20
87.0950483824
 10
196.880988051
 20
87.4914253461
  0
HATCH
  5
2B5
100
AcDbEntity
  8
0
100
AcDbHatch
 62
1
  6
CONTINUOUS
 10
0.0
 20
0.0
 30
0.0
210
0.0
220
0.0
230
1.0
  2
SOLID
 70
1
 71
1
 91
1
 92
1
 93
7
 72
1
 10
196.880988051
 20
87.4914253461
 11
202.8911480299
 21
87.1391924756
 72
1
 10
202.8911480299
 20
87.1391924756
 11
209.8876877284
 21
89.4862352558
 72
1
 10
209.8876877284
 20
89.4862352558
 11
207.3492045779
 21
85.5315780267
 72
1
 10
207.3492045779
 20
85.5315780267
 11
176.9105088593
 21
83.7712151648
 72
1
 10
176.9105088593
 20
83.7712151648
 11
183.8154794554
 21
85.8753736679
 72
1
 10
183.8154794554
 20
85.8753736679
 11
190.5084923852
 21
87.0950483824
 72
1
 10
190.5084923852
 20
87.0950483824
 11
196.880988051
 21
87.4914253461
 97
1
330
2B4
 75
0
 76
1
 98
1
 10
0.0
 20
0.0
  0
SOLID
  5
2B6
100
AcDbEntity
  8
0
100
AcDbTrace
 62
1
  6
CONTINUOUS
 10
209.8876877284
 20
89.4862352558
 11
202.8911480299
 21
87.1391924756
 12
203.9556211079
 22
88.7914763435
 13
203.9556211079
 23
88.7914763435
  0
LWPOLYLINE
  5
2B7
100
AcDbEntity
  8
0
100
AcDbPolyline
 62
1
  6
CONTINUOUS
 90
15
 70
0
 10
272.463707884
 20
85.059056521
 10
272.7889475701
 20
84.890357009
 10
273.029806567
 20
84.5729197614
 10
273.1649868109
 20
84.1274646889
 10
273.1751411854
 20
83.6178525534
 10
273.0448830315
 20
83.0828642019
 10
269.1530315401
 20
82.2780891452
 10
269.4138486157
 20
83.1049609405
 10
269.7704348354
 20
83.7901011233
 10
270.2049008501
 20
84.3274304337
 10
270.6827950782
 20
84.7153242812
 10
271.1693430725
 20
84.9634057885
 10
271.6408043345
 20
85.090959317
 10
272.0801574378
 20
85.1200986349
 10
272.463707884
 20
85.059056521
  0
HATCH
  5
2B8
100
AcDbEntity
  8
0
100
AcDbHatch
 62
1
  6
CONTINUOUS
 10
0.0
 20
0.0
 30
0.0
210
0.0
220
0.0
230
1.0
  2
SOLID
 70
1
 71
1
 91
1
 92
1
 93
14
 72
1
 10
272.463707884
 20
85.059056521
 11
272.7889475701
 21
84.890357009
 72
1
 10
272.7889475701
 20
84.890357009
 11
273.029806567
 21
84.5729197614
 72
1
 10
273.029806567
 20
84.5729197614
 11
273.1649868109
 21
84.1274646889
 72
1
 10
273.1649868109
 20
84.1274646889
 11
273.1751411854
 21
83.6178525534
 72
1
 10
273.1751411854
 20
83.6178525534
 11
273.0448830315
 21
83.0828642019
 72
1
 10
273.0448830315
 20
83.0828642019
 11
269.1530315401
 21
82.2780891452
 72
1
 10
269.1530315401
 20
82.2780891452
 11
269.4138486157
 21
83.1049609405
 72
1
 10
269.4138486157
 20
83.1049609405
 11
269.7704348354
 21
83.7901011233
 72
1
 10
269.7704348354
 20
83.7901011233
 11
270.2049008501
 21
84.3274304337
 72
1
 10
270.2049008501
 20
84.3274304337
 11
270.6827950782
 21
84.7153242812
 72
1
 10
270.6827950782
 20
84.7153242812
 11
271.1693430725
 21
84.9634057885
 72
1
 10
271.1693430725
 20
84.9634057885
 11
271.6408043345
 21
85.090959317
 72
1
 10
271.6408043345
 20
85.090959317
 11
272.0801574378
 21
85.1200986349
 72
1
 10
272.0801574378
 20
85.1200986349
 11
272.463707884
 21
85.059056521
 97
1
330
2B7
 75
0
 76
1
 98
1
 10
0.0
 20
0.0
  0
LWPOLYLINE
  5
2B9
100
AcDbEntity
  8
0
100
AcDbPolyline
 62
1
  6
CONTINUOUS
 90
12
 70
0
 10
263.8047130883
 20
84.5900389436
 10
264.3713024938
 20
84.5472165643
 10
264.9755023391
 20
84.3266345674
 10
265.1434422532
 20
83.7962189451
 10
265.1301530981
 20
83.2666546005
 10
264.9426285351
 20
82.720033746
 10
261.0216528752
 20
82.0282192564
 10
261.4494370015
 20
82.9148723746
 10
261.9891272458
 20
83.6253095681
 10
262.5912402372
 20
84.1479217616
 10
263.202104778
 20
84.4638193542
 10
263.8047130883
 20
84.5900389436
  0
HATCH
  5
2BA
100
AcDbEntity
  8
0
100
AcDbHatch
 62
1
  6
CONTINUOUS
 10
0.0
 20
0.0
 30
0.0
210
0.0
220
0.0
230
1.0
  2
SOLID
 70
1
 71
1
 91
1
 92
1
 93
11
 72
1
 10
263.8047130883
 20
84.5900389436
 11
264.3713024938
 21
84.5472165643
 72
1
 10
264.3713024938
 20
84.5472165643
 11
264.9755023391
 21
84.3266345674
 72
1
 10
264.9755023391
 20
84.3266345674
 11
265.1434422532
 21
83.7962189451
 72
1
 10
265.1434422532
 20
83.7962189451
 11
265.1301530981
 21
83.2666546005
 72
1
 10
265.1301530981
 20
83.2666546005
 11
264.9426285351
 21
82.720033746
 72
1
 10
264.9426285351
 20
82.720033746
 11
261.0216528752
 21
82.0282192564
 72
1
 10
261.0216528752
 20
82.0282192564
 11
261.4494370015
 21
82.9148723746
 72
1
 10
261.4494370015
 20
82.9148723746
 11
261.9891272458
 21
83.6253095681
 72
1
 10
261.9891272458
 20
83.6253095681
 11
262.5912402372
 21
84.1479217616
 72
1
 10
262.5912402372
 20
84.1479217616
 11
263.202104778
 21
84.4638193542
 72
1
 10
263.202104778
 20
84.4638193542
 11
263.8047130883
 21
84.5900389436
 97
1
330
2B9
 75
0
 76
1
 98
1
 10
0.0
 20
0.0
  0
LWPOLYLINE
  5
2BB
100
AcDbEntity
  8
0
100
AcDbPolyline
 62
1
  6
CONTINUOUS
 90
11
 70
0
 10
210.0278011031
 20
83.6123161285
 10
196.617385786
 20
83.0777425628
 10
192.6084403331
 20
82.8348166049
 10
188.1693984595
 20
81.9364958977
 10
183.3187326462
 20
80.3310519705
 10
178.0816233976
 20
78.0465099839
 10
172.4681229581
 20
75.220454303
 10
176.9105088593
 20
83.7712151648
 10
207.3492045779
 20
85.5315780267
 10
208.7914023165
 20
84.7077927304
 10
210.0278011031
 20
83.6123161285
  0
HATCH
  5
2BC
100
AcDbEntity
  8
0
100
AcDbHatch
 62
1
  6
CONTINUOUS
 10
0.0
 20
0.0
 30
0.0
210
0.0
220
0.0
230
1.0
  2
SOLID
 70
1
 71
1
 91
1
 92
1
 93
10
 72
1
 10
210.0278011031
 20
83.6123161285
 11
196.617385786
 21
83.0777425628
 72
1
 10
196.617385786
 20
83.0777425628
 11
192.6084403331
 21
82.8348166049
 72
1
 10
192.6084403331
 20
82.8348166049
 11
188.1693984595
 21
81.9364958977
 72
1
 10
188.1693984595
 20
81.9364958977
 11
183.3187326462
 21
80.3310519705
 72
1
 10
183.3187326462
 20
80.3310519705
 11
178.0816233976
 21
78.0465099839
 72
1
 10
178.0816233976
 20
78.0465099839
 11
172.4681229581
 21
75.220454303
 72
1
 10
172.4681229581
 20
75.220454303
 11
176.9105088593
 21
83.7712151648
 72
1
 10
176.9105088593
 20
83.7712151648
 11
207.3492045779
 21
85.5315780267
 72
1
 10
207.3492045779
 20
85.5315780267
 11
208.7914023165
 21
84.7077927304
 72
1
 10
208.7914023165
 20
84.7077927304
 11
210.0278011031
 21
83.6123161285
 97
1
330
2BB
 75
0
 76
1
 98
1
 10
0.0
 20
0.0
  0
LWPOLYLINE
  5
2BD
100
AcDbEntity
  8
0
100
AcDbPolyline
 62
1
  6
CONTINUOUS
 90
7
 70
0
 10
210.0278011031
 20
83.6123161285
 10
211.0052371841
 20
82.3220730121
 10
204.6885873176
 20
81.82135057
 10
191.4551303851
 20
66.4926312923
 10
200.2736654357
 20
82.7546425677
 10
196.617385786
 20
83.0777425628
 10
210.0278011031
 20
83.6123161285
  0
HATCH
  5
2BE
100
AcDbEntity
  8
0
100
AcDbHatch
 62
1
  6
CONTINUOUS
 10
0.0
 20
0.0
 30
0.0
210
0.0
220
0.0
230
1.0
  2
SOLID
 70
1
 71
1
 91
1
 92
1
 93
6
 72
1
 10
210.0278011031
 20
83.6123161285
 11
211.0052371841
 21
82.3220730121
 72
1
 10
211.0052371841
 20
82.3220730121
 11
204.6885873176
 21
81.82135057
 72
1
 10
204.6885873176
 20
81.82135057
 11
191.4551303851
 21
66.4926312923
 72
1
 10
191.4551303851
 20
66.4926312923
 11
200.2736654357
 21
82.7546425677
 72
1
 10
200.2736654357
 20
82.7546425677
 11
196.617385786
 21
83.0777425628
 72
1
 10
196.617385786
 20
83.0777425628
 11
210.0278011031
 21
83.6123161285
 97
1
330
2BD
 75
0
 76
1
 98
1
 10
0.0
 20
0.0
  0
LWPOLYLINE
  5
2BF
100
AcDbEntity
  8
0
100
AcDbPolyline
 62
1
  6
CONTINUOUS
 90
8
 70
0
 10
272.3497834961
 20
81.9269077734
 10
271.7775143513
 20
81.2896625333
 10
268.9430838124
 20
80.3180993946
 10
268.9969909362
 20
81.3321490557
 10
269.1530315401
 20
82.2780891452
 10
273.0448830315
 20
83.0828642019
 10
272.7697446817
 20
82.5190657521
 10
272.3497834961
 20
81.9269077734
  0
HATCH
  5
2C0
100
AcDbEntity
  8
0
100
AcDbHatch
 62
1
  6
CONTINUOUS
 10
0.0
 20
0.0
 30
0.0
210
0.0
220
0.0
230
1.0
  2
SOLID
 70
1
 71
1
 91
1
 92
1
 93
7
 72
1
 10
272.3497834961
 20
81.9269077734
 11
271.7775143513
 21
81.2896625333
 72
1
 10
271.7775143513
 20
81.2896625333
 11
268.9430838124
 21
80.3180993946
 72
1
 10
268.9430838124
 20
80.3180993946
 11
268.9969909362
 21
81.3321490557
 72
1
 10
268.9969909362
 20
81.3321490557
 11
269.1530315401
 21
82.2780891452
 72
1
 10
269.1530315401
 20
82.2780891452
 11
273.0448830315
 21
83.0828642019
 72
1
 10
273.0448830315
 20
83.0828642019
 11
272.7697446817
 21
82.5190657521
 72
1
 10
272.7697446817
 20
82.5190657521
 11
272.3497834961
 21
81.9269077734
 97
1
330
2BF
 75
0
 76
1
 98
1
 10
0.0
 20
0.0
  0
LWPOLYLINE
  5
2C1
100
AcDbEntity
  8
0
100
AcDbPolyline
 62
1
  6
CONTINUOUS
 90
6
 70
0
 10
264.1140264094
 20
81.6063279845
 10
260.9144624233
 20
79.909854825
 10
261.0216528752
 20
82.0282192564
 10
264.9426285351
 20
82.720033746
 10
264.5895357363
 20
82.1591303057
 10
264.1140264094
 20
81.6063279845
  0
HATCH
  5
2C2
100
AcDbEntity
  8
0
100
AcDbHatch
 62
1
  6
CONTINUOUS
 10
0.0
 20
0.0
 30
0.0
210
0.0
220
0.0
230
1.0
  2
SOLID
 70
1
 71
1
 91
1
 92
1
 93
5
 72
1
 10
264.1140264094
 20
81.6063279845
 11
260.9144624233
 21
79.909854825
 72
1
 10
260.9144624233
 20
79.909854825
 11
261.0216528752
 21
82.0282192564
 72
1
 10
261.0216528752
 20
82.0282192564
 11
264.9426285351
 21
82.720033746
 72
1
 10
264.9426285351
 20
82.720033746
 11
264.5895357363
 21
82.1591303057
 72
1
 10
264.5895357363
 20
82.1591303057
 11
264.1140264094
 21
81.6063279845
 97
1
330
2C1
 75
0
 76
1
 98
1
 10
0.0
 20
0.0
  0
SOLID
  5
2C3
100
AcDbEntity
  8
0
100
AcDbTrace
 62
1
  6
CONTINUOUS
 10
243.980578059
 20
81.3983616407
 11
248.045545841
 21
83.9416721587
 12
247.2898855451
 22
81.93346839
 13
247.2898855451
 23
81.93346839
  0
LWPOLYLINE
  5
2C4
100
AcDbEntity
  8
0
100
AcDbPolyline
 62
1
  6
CONTINUOUS
 90
50
 70
0
 10
204.6885873176
 20
81.82135057
 10
211.0052371841
 20
82.3220730121
 10
211.6724832579
 20
80.9025946436
 10
211.985003174
 20
79.4090543636
 10
211.9580266536
 20
77.8199039603
 10
211.5976167127
 20
76.0584856937
 10
210.8960583282
 20
74.1441036862
 10
209.8335243026
 20
72.0555358122
 10
208.5204642249
 20
69.9755536015
 10
210.7650823691
 20
70.0290276624
 10
214.5580823947
 20
70.340229229
 10
213.9753912378
 20
69.3671397813
 10
213.6515445768
 20
68.4147369335
 10
213.5776812988
 20
67.5095525075
 10
213.7399203204
 20
66.6066069728
 10
209.8013624929
 20
66.3574261821
 10
209.7576425214
 20
67.0254419944
 10
209.7919541668
 20
67.7262795965
 10
209.8993195481
 20
68.3363555305
 10
207.3797381053
 20
68.2793273023
 10
204.4562625371
 20
65.132234729
 10
201.611203954
 20
62.6557168287
 10
198.8986647655
 20
60.6658190269
 10
196.3443071905
 20
59.0352278013
 10
193.9667150678
 20
57.682184556
 10
191.7503321438
 20
56.5652695409
 10
175.727669513
 20
56.3870784546
 10
182.4730134008
 20
56.8800287253
 10
182.889984401
 20
56.7350534505
 10
183.3762659959
 20
56.7018699583
 10
186.6427708208
 20
57.0222303117
 10
190.0262294909
 20
57.87713151
 10
193.5202861641
 20
59.3277875363
 10
197.0517153755
 20
61.4220026385
 10
200.477805193
 20
64.15027797
 10
203.6298493729
 20
67.4403015119
 10
195.5366875388
 20
67.8596124657
 10
198.7146199419
 20
68.4442766695
 10
201.9045015479
 20
68.9594022003
 10
205.1067674003
 20
69.4050289882
 10
206.1131078466
 20
70.9814039593
 10
206.9464133978
 20
72.7926453453
 10
207.5214592082
 20
74.5741000304
 10
207.8241435307
 20
76.2005616059
 10
207.8719210354
 20
77.5973770201
 10
207.67339938
 20
78.8767530127
 10
207.2471462987
 20
79.9149926768
 10
206.6340583295
 20
80.7186819623
 10
205.8081635652
 20
81.3500887684
 10
204.6885873176
 20
81.82135057
  0
HATCH
  5
2C5
100
AcDbEntity
  8
0
100
AcDbHatch
 62
1
  6
CONTINUOUS
 10
0.0
 20
0.0
 30
0.0
210
0.0
220
0.0
230
1.0
  2
SOLID
 70
1
 71
1
 91
1
 92
1
 93
49
 72
1
 10
204.6885873176
 20
81.82135057
 11
211.0052371841
 21
82.3220730121
 72
1
 10
211.0052371841
 20
82.3220730121
 11
211.6724832579
 21
80.9025946436
 72
1
 10
211.6724832579
 20
80.9025946436
 11
211.985003174
 21
79.4090543636
 72
1
 10
211.985003174
 20
79.4090543636
 11
211.9580266536
 21
77.8199039603
 72
1
 10
211.9580266536
 20
77.8199039603
 11
211.5976167127
 21
76.0584856937
 72
1
 10
211.5976167127
 20
76.0584856937
 11
210.8960583282
 21
74.1441036862
 72
1
 10
210.8960583282
 20
74.1441036862
 11
209.8335243026
 21
72.0555358122
 72
1
 10
209.8335243026
 20
72.0555358122
 11
208.5204642249
 21
69.9755536015
 72
1
 10
208.5204642249
 20
69.9755536015
 11
210.7650823691
 21
70.0290276624
 72
1
 10
210.7650823691
 20
70.0290276624
 11
214.5580823947
 21
70.340229229
 72
1
 10
214.5580823947
 20
70.340229229
 11
213.9753912378
 21
69.3671397813
 72
1
 10
213.9753912378
 20
69.3671397813
 11
213.6515445768
 21
68.4147369335
 72
1
 10
213.6515445768
 20
68.4147369335
 11
213.5776812988
 21
67.5095525075
 72
1
 10
213.5776812988
 20
67.5095525075
 11
213.7399203204
 21
66.6066069728
 72
1
 10
213.7399203204
 20
66.6066069728
 11
209.8013624929
 21
66.3574261821
 72
1
 10
209.8013624929
 20
66.3574261821
 11
209.7576425214
 21
67.0254419944
 72
1
 10
209.7576425214
 20
67.0254419944
 11
209.7919541668
 21
67.7262795965
 72
1
 10
209.7919541668
 20
67.7262795965
 11
209.8993195481
 21
68.3363555305
 72
1
 10
209.8993195481
 20
68.3363555305
 11
207.3797381053
 21
68.2793273023
 72
1
 10
207.3797381053
 20
68.2793273023
 11
204.4562625371
 21
65.132234729
 72
1
 10
204.4562625371
 20
65.132234729
 11
201.611203954
 21
62.6557168287
 72
1
 10
201.611203954
 20
62.6557168287
 11
198.8986647655
 21
60.6658190269
 72
1
 10
198.8986647655
 20
60.6658190269
 11
196.3443071905
 21
59.0352278013
 72
1
 10
196.3443071905
 20
59.0352278013
 11
193.9667150678
 21
57.682184556
 72
1
 10
193.9667150678
 20
57.682184556
 11
191.7503321438
 21
56.5652695409
 72
1
 10
191.7503321438
 20
56.5652695409
 11
175.727669513
 21
56.3870784546
 72
1
 10
175.727669513
 20
56.3870784546
 11
182.4730134008
 21
56.8800287253
 72
1
 10
182.4730134008
 20
56.8800287253
 11
182.889984401
 21
56.7350534505
 72
1
 10
182.889984401
 20
56.7350534505
 11
183.3762659959
 21
56.7018699583
 72
1
 10
183.3762659959
 20
56.7018699583
 11
186.6427708208
 21
57.0222303117
 72
1
 10
186.6427708208
 20
57.0222303117
 11
190.0262294909
 21
57.87713151
 72
1
 10
190.0262294909
 20
57.87713151
 11
193.5202861641
 21
59.3277875363
 72
1
 10
193.5202861641
 20
59.3277875363
 11
197.0517153755
 21
61.4220026385
 72
1
 10
197.0517153755
 20
61.4220026385
 11
200.477805193
 21
64.15027797
 72
1
 10
200.477805193
 20
64.15027797
 11
203.6298493729
 21
67.4403015119
 72
1
 10
203.6298493729
 20
67.4403015119
 11
195.5366875388
 21
67.8596124657
 72
1
 10
195.5366875388
 20
67.8596124657
 11
198.7146199419
 21
68.4442766695
 72
1
 10
198.7146199419
 20
68.4442766695
 11
201.9045015479
 21
68.9594022003
 72
1
 10
201.9045015479
 20
68.9594022003
 11
205.1067674003
 21
69.4050289882
 72
1
 10
205.1067674003
 20
69.4050289882
 11
206.1131078466
 21
70.9814039593
 72
1
 10
206.1131078466
 20
70.9814039593
 11
206.9464133978
 21
72.7926453453
 72
1
 10
206.9464133978
 20
72.7926453453
 11
207.5214592082
 21
74.5741000304
 72
1
 10
207.5214592082
 20
74.5741000304
 11
207.8241435307
 21
76.2005616059
 72
1
 10
207.8241435307
 20
76.2005616059
 11
207.8719210354
 21
77.5973770201
 72
1
 10
207.8719210354
 20
77.5973770201
 11
207.67339938
 21
78.8767530127
 72
1
 10
207.67339938
 20
78.8767530127
 11
207.2471462987
 21
79.9149926768
 72
1
 10
207.2471462987
 20
79.9149926768
 11
206.6340583295
 21
80.7186819623
 72
1
 10
206.6340583295
 20
80.7186819623
 11
205.8081635652
 21
81.3500887684
 72
1
 10
205.8081635652
 20
81.3500887684
 11
204.6885873176
 21
81.82135057
 97
1
330
2C4
 75
0
 76
1
 98
1
 10
0.0
 20
0.0
  0
LWPOLYLINE
  5
2C6
100
AcDbEntity
  8
0
100
AcDbPolyline
 62
1
  6
CONTINUOUS
 90
13
 70
0
 10
270.5551409701
 20
80.0832820297
 10
270.6797749771
 20
78.063402643
 10
270.7058945116
 20
76.0492774178
 10
265.3695529973
 20
75.4911033406
 10
266.4653731757
 20
76.1594058177
 10
267.7033934812
 20
76.8465931639
 10
268.9571389282
 20
77.6256561831
 10
268.9708709376
 20
78.8432007805
 10
266.590005089
 20
79.2642783085
 10
268.9430838124
 20
80.3180993946
 10
271.7775143513
 20
81.2896625333
 10
271.1360448294
 20
80.661760216
 10
270.5551409701
 20
80.0832820297
  0
HATCH
  5
2C7
100
AcDbEntity
  8
0
100
AcDbHatch
 62
1
  6
CONTINUOUS
 10
0.0
 20
0.0
 30
0.0
210
0.0
220
0.0
230
1.0
  2
SOLID
 70
1
 71
1
 91
1
 92
1
 93
12
 72
1
 10
270.5551409701
 20
80.0832820297
 11
270.6797749771
 21
78.063402643
 72
1
 10
270.6797749771
 20
78.063402643
 11
270.7058945116
 21
76.0492774178
 72
1
 10
270.7058945116
 20
76.0492774178
 11
265.3695529973
 21
75.4911033406
 72
1
 10
265.3695529973
 20
75.4911033406
 11
266.4653731757
 21
76.1594058177
 72
1
 10
266.4653731757
 20
76.1594058177
 11
267.7033934812
 21
76.8465931639
 72
1
 10
267.7033934812
 20
76.8465931639
 11
268.9571389282
 21
77.6256561831
 72
1
 10
268.9571389282
 20
77.6256561831
 11
268.9708709376
 21
78.8432007805
 72
1
 10
268.9708709376
 20
78.8432007805
 11
266.590005089
 21
79.2642783085
 72
1
 10
266.590005089
 20
79.2642783085
 11
268.9430838124
 21
80.3180993946
 72
1
 10
268.9430838124
 20
80.3180993946
 11
271.7775143513
 21
81.2896625333
 72
1
 10
271.7775143513
 20
81.2896625333
 11
271.1360448294
 21
80.661760216
 72
1
 10
271.1360448294
 20
80.661760216
 11
270.5551409701
 21
80.0832820297
 97
1
330
2C6
 75
0
 76
1
 98
1
 10
0.0
 20
0.0
  0
LWPOLYLINE
  5
2C8
100
AcDbEntity
  8
0
100
AcDbPolyline
 62
1
  6
CONTINUOUS
 90
18
 70
0
 10
254.9889700942
 20
80.2105563668
 10
255.3030720237
 20
79.9880523951
 10
255.5710951349
 20
79.6393342346
 10
255.6790997826
 20
78.8230224376
 10
255.6311383286
 20
78.0424254132
 10
255.4320166963
 20
77.2752973673
 10
255.064868638
 20
76.4926784276
 10
251.7749441529
 20
76.3864074618
 10
251.7861614131
 20
76.9353079076
 10
251.9130158701
 20
77.5359113745
 10
252.1159439957
 20
78.17860524
 10
252.3843540081
 20
78.8336711575
 10
252.7355356072
 20
79.4108652883
 10
253.1764306497
 20
79.8612766987
 10
253.6771834588
 20
80.1658702072
 10
254.1616329085
 20
80.3154009746
 10
254.6086094891
 20
80.3254260013
 10
254.9889700942
 20
80.2105563668
  0
HATCH
  5
2C9
100
AcDbEntity
  8
0
100
AcDbHatch
 62
1
  6
CONTINUOUS
 10
0.0
 20
0.0
 30
0.0
210
0.0
220
0.0
230
1.0
  2
SOLID
 70
1
 71
1
 91
1
 92
1
 93
17
 72
1
 10
254.9889700942
 20
80.2105563668
 11
255.3030720237
 21
79.9880523951
 72
1
 10
255.3030720237
 20
79.9880523951
 11
255.5710951349
 21
79.6393342346
 72
1
 10
255.5710951349
 20
79.6393342346
 11
255.6790997826
 21
78.8230224376
 72
1
 10
255.6790997826
 20
78.8230224376
 11
255.6311383286
 21
78.0424254132
 72
1
 10
255.6311383286
 20
78.0424254132
 11
255.4320166963
 21
77.2752973673
 72
1
 10
255.4320166963
 20
77.2752973673
 11
255.064868638
 21
76.4926784276
 72
1
 10
255.064868638
 20
76.4926784276
 11
251.7749441529
 21
76.3864074618
 72
1
 10
251.7749441529
 20
76.3864074618
 11
251.7861614131
 21
76.9353079076
 72
1
 10
251.7861614131
 20
76.9353079076
 11
251.9130158701
 21
77.5359113745
 72
1
 10
251.9130158701
 20
77.5359113745
 11
252.1159439957
 21
78.17860524
 72
1
 10
252.1159439957
 20
78.17860524
 11
252.3843540081
 21
78.8336711575
 72
1
 10
252.3843540081
 20
78.8336711575
 11
252.7355356072
 21
79.4108652883
 72
1
 10
252.7355356072
 20
79.4108652883
 11
253.1764306497
 21
79.8612766987
 72
1
 10
253.1764306497
 20
79.8612766987
 11
253.6771834588
 21
80.1658702072
 72
1
 10
253.6771834588
 20
80.1658702072
 11
254.1616329085
 21
80.3154009746
 72
1
 10
254.1616329085
 20
80.3154009746
 11
254.6086094891
 21
80.3254260013
 72
1
 10
254.6086094891
 20
80.3254260013
 11
254.9889700942
 21
80.2105563668
 97
1
330
2C8
 75
0
 76
1
 98
1
 10
0.0
 20
0.0
  0
LWPOLYLINE
  5
2CA
100
AcDbEntity
  8
0
100
AcDbPolyline
 62
1
  6
CONTINUOUS
 90
44
 70
0
 10
262.4719146485
 20
77.636561014
 10
260.7157521658
 20
77.0172473788
 10
260.7157521658
 20
78.1116885484
 10
258.8860036443
 20
76.8091326697
 10
257.127594599
 20
75.8369835003
 10
255.4602362403
 20
75.2586409058
 10
253.9264850371
 20
75.0676251131
 10
253.1098346754
 20
73.5177041218
 10
252.1621592543
 20
72.243424609
 10
251.1699616022
 20
71.189748605
 10
250.1917766352
 20
70.3131239619
 10
249.2559322824
 20
69.5892899455
 10
248.3462950351
 20
69.0404765867
 10
247.4638013422
 20
68.6807462916
 10
246.5996244879
 20
68.4929065566
 10
245.8028465823
 20
68.4796393899
 10
245.0980124751
 20
68.6465639387
 10
244.5027841389
 20
69.0079688646
 10
244.0371053034
 20
69.5347624973
 10
243.7118224101
 20
70.1817794551
 10
243.5585373262
 20
70.9200460594
 10
247.0477175155
 20
70.7191823126
 10
247.4523561739
 20
70.552524831
 10
247.9011463091
 20
70.5267570216
 10
248.38722586
 20
70.6455458276
 10
248.8906333089
 20
70.8834605306
 10
249.410925528
 20
71.2048731475
 10
249.9458604756
 20
71.607026043
 10
250.4928603296
 20
72.1048346367
 10
251.0411029004
 20
72.7069063094
 10
251.5835067279
 20
73.4243473565
 10
252.1120420607
 20
74.2663035995
 10
252.6159666563
 20
75.2339439828
 10
252.1583075204
 20
75.560252006
 10
251.9012572481
 20
75.9261927356
 10
255.9541374281
 20
76.4926784276
 10
257.7618520722
 20
77.3841318942
 10
259.4029243006
 20
78.5132169715
 10
260.9144624233
 20
79.909854825
 10
264.1140264094
 20
81.6063279845
 10
263.5403132531
 20
81.0375327143
 10
262.9557509415
 20
80.4707429507
 10
262.4855658815
 20
79.921325092
 10
262.4719146485
 20
77.636561014
  0
HATCH
  5
2CB
100
AcDbEntity
  8
0
100
AcDbHatch
 62
1
  6
CONTINUOUS
 10
0.0
 20
0.0
 30
0.0
210
0.0
220
0.0
230
1.0
  2
SOLID
 70
1
 71
1
 91
1
 92
1
 93
43
 72
1
 10
262.4719146485
 20
77.636561014
 11
260.7157521658
 21
77.0172473788
 72
1
 10
260.7157521658
 20
77.0172473788
 11
260.7157521658
 21
78.1116885484
 72
1
 10
260.7157521658
 20
78.1116885484
 11
258.8860036443
 21
76.8091326697
 72
1
 10
258.8860036443
 20
76.8091326697
 11
257.127594599
 21
75.8369835003
 72
1
 10
257.127594599
 20
75.8369835003
 11
255.4602362403
 21
75.2586409058
 72
1
 10
255.4602362403
 20
75.2586409058
 11
253.9264850371
 21
75.0676251131
 72
1
 10
253.9264850371
 20
75.0676251131
 11
253.1098346754
 21
73.5177041218
 72
1
 10
253.1098346754
 20
73.5177041218
 11
252.1621592543
 21
72.243424609
 72
1
 10
252.1621592543
 20
72.243424609
 11
251.1699616022
 21
71.189748605
 72
1
 10
251.1699616022
 20
71.189748605
 11
250.1917766352
 21
70.3131239619
 72
1
 10
250.1917766352
 20
70.3131239619
 11
249.2559322824
 21
69.5892899455
 72
1
 10
249.2559322824
 20
69.5892899455
 11
248.3462950351
 21
69.0404765867
 72
1
 10
248.3462950351
 20
69.0404765867
 11
247.4638013422
 21
68.6807462916
 72
1
 10
247.4638013422
 20
68.6807462916
 11
246.5996244879
 21
68.4929065566
 72
1
 10
246.5996244879
 20
68.4929065566
 11
245.8028465823
 21
68.4796393899
 72
1
 10
245.8028465823
 20
68.4796393899
 11
245.0980124751
 21
68.6465639387
 72
1
 10
245.0980124751
 20
68.6465639387
 11
244.5027841389
 21
69.0079688646
 72
1
 10
244.5027841389
 20
69.0079688646
 11
244.0371053034
 21
69.5347624973
 72
1
 10
244.0371053034
 20
69.5347624973
 11
243.7118224101
 21
70.1817794551
 72
1
 10
243.7118224101
 20
70.1817794551
 11
243.5585373262
 21
70.9200460594
 72
1
 10
243.5585373262
 20
70.9200460594
 11
247.0477175155
 21
70.7191823126
 72
1
 10
247.0477175155
 20
70.7191823126
 11
247.4523561739
 21
70.552524831
 72
1
 10
247.4523561739
 20
70.552524831
 11
247.9011463091
 21
70.5267570216
 72
1
 10
247.9011463091
 20
70.5267570216
 11
248.38722586
 21
70.6455458276
 72
1
 10
248.38722586
 20
70.6455458276
 11
248.8906333089
 21
70.8834605306
 72
1
 10
248.8906333089
 20
70.8834605306
 11
249.410925528
 21
71.2048731475
 72
1
 10
249.410925528
 20
71.2048731475
 11
249.9458604756
 21
71.607026043
 72
1
 10
249.9458604756
 20
71.607026043
 11
250.4928603296
 21
72.1048346367
 72
1
 10
250.4928603296
 20
72.1048346367
 11
251.0411029004
 21
72.7069063094
 72
1
 10
251.0411029004
 20
72.7069063094
 11
251.5835067279
 21
73.4243473565
 72
1
 10
251.5835067279
 20
73.4243473565
 11
252.1120420607
 21
74.2663035995
 72
1
 10
252.1120420607
 20
74.2663035995
 11
252.6159666563
 21
75.2339439828
 72
1
 10
252.6159666563
 20
75.2339439828
 11
252.1583075204
 21
75.560252006
 72
1
 10
252.1583075204
 20
75.560252006
 11
251.9012572481
 21
75.9261927356
 72
1
 10
251.9012572481
 20
75.9261927356
 11
255.9541374281
 21
76.4926784276
 72
1
 10
255.9541374281
 20
76.4926784276
 11
257.7618520722
 21
77.3841318942
 72
1
 10
257.7618520722
 20
77.3841318942
 11
259.4029243006
 21
78.5132169715
 72
1
 10
259.4029243006
 20
78.5132169715
 11
260.9144624233
 21
79.909854825
 72
1
 10
260.9144624233
 20
79.909854825
 11
264.1140264094
 21
81.6063279845
 72
1
 10
264.1140264094
 20
81.6063279845
 11
263.5403132531
 21
81.0375327143
 72
1
 10
263.5403132531
 20
81.0375327143
 11
262.9557509415
 21
80.4707429507
 72
1
 10
262.9557509415
 20
80.4707429507
 11
262.4855658815
 21
79.921325092
 72
1
 10
262.4855658815
 20
79.921325092
 11
262.4719146485
 21
77.636561014
 97
1
330
2CA
 75
0
 76
1
 98
1
 10
0.0
 20
0.0
  0
LWPOLYLINE
  5
2CC
100
AcDbEntity
  8
0
100
AcDbPolyline
 62
1
  6
CONTINUOUS
 90
34
 70
0
 10
266.590005089
 20
79.2642783085
 10
268.9708709376
 20
78.8432007805
 10
266.8957290901
 20
77.9632444247
 10
264.7992354707
 20
77.1413063733
 10
262.6809643013
 20
76.3771741754
 10
262.5429022339
 20
74.7813692015
 10
262.198180539
 20
73.2666005766
 10
261.6445471004
 20
71.9662354829
 10
260.8696016426
 20
70.9287668868
 10
259.9195597052
 20
70.205509174
 10
258.9228607147
 20
69.7229858185
 10
257.9719610245
 20
69.3947442246
 10
257.0880948212
 20
69.2154347749
 10
256.3146582036
 20
69.2232265218
 10
255.6537000324
 20
69.402301007
 10
255.0909162539
 20
69.7280888239
 10
254.6694114077
 20
70.2094115839
 10
254.5146151841
 20
70.8394523262
 10
254.4805013418
 20
71.5559898301
 10
257.2471778001
 20
71.9656437462
 10
257.7646599681
 20
72.1008266794
 10
258.2687926674
 20
72.4126423665
 10
258.7615040437
 20
72.8649552519
 10
259.2355769044
 20
73.3685039347
 10
259.6737951136
 20
73.8736597595
 10
259.9732677508
 20
74.3694864542
 10
260.0906205748
 20
74.8717130888
 10
260.021639466
 20
75.3731219397
 10
258.1780746888
 20
75.7413633821
 10
259.3928862071
 20
76.3501062655
 10
260.7157521658
 20
77.0172473788
 10
262.4719146485
 20
77.636561014
 10
264.4665292694
 20
78.2958958922
 10
266.590005089
 20
79.2642783085
  0
HATCH
  5
2CD
100
AcDbEntity
  8
0
100
AcDbHatch
 62
1
  6
CONTINUOUS
 10
0.0
 20
0.0
 30
0.0
210
0.0
220
0.0
230
1.0
  2
SOLID
 70
1
 71
1
 91
1
 92
1
 93
33
 72
1
 10
266.590005089
 20
79.2642783085
 11
268.9708709376
 21
78.8432007805
 72
1
 10
268.9708709376
 20
78.8432007805
 11
266.8957290901
 21
77.9632444247
 72
1
 10
266.8957290901
 20
77.9632444247
 11
264.7992354707
 21
77.1413063733
 72
1
 10
264.7992354707
 20
77.1413063733
 11
262.6809643013
 21
76.3771741754
 72
1
 10
262.6809643013
 20
76.3771741754
 11
262.5429022339
 21
74.7813692015
 72
1
 10
262.5429022339
 20
74.7813692015
 11
262.198180539
 21
73.2666005766
 72
1
 10
262.198180539
 20
73.2666005766
 11
261.6445471004
 21
71.9662354829
 72
1
 10
261.6445471004
 20
71.9662354829
 11
260.8696016426
 21
70.9287668868
 72
1
 10
260.8696016426
 20
70.9287668868
 11
259.9195597052
 21
70.205509174
 72
1
 10
259.9195597052
 20
70.205509174
 11
258.9228607147
 21
69.7229858185
 72
1
 10
258.9228607147
 20
69.7229858185
 11
257.9719610245
 21
69.3947442246
 72
1
 10
257.9719610245
 20
69.3947442246
 11
257.0880948212
 21
69.2154347749
 72
1
 10
257.0880948212
 20
69.2154347749
 11
256.3146582036
 21
69.2232265218
 72
1
 10
256.3146582036
 20
69.2232265218
 11
255.6537000324
 21
69.402301007
 72
1
 10
255.6537000324
 20
69.402301007
 11
255.0909162539
 21
69.7280888239
 72
1
 10
255.0909162539
 20
69.7280888239
 11
254.6694114077
 21
70.2094115839
 72
1
 10
254.6694114077
 20
70.2094115839
 11
254.5146151841
 21
70.8394523262
 72
1
 10
254.5146151841
 20
70.8394523262
 11
254.4805013418
 21
71.5559898301
 72
1
 10
254.4805013418
 20
71.5559898301
 11
257.2471778001
 21
71.9656437462
 72
1
 10
257.2471778001
 20
71.9656437462
 11
257.7646599681
 21
72.1008266794
 72
1
 10
257.7646599681
 20
72.1008266794
 11
258.2687926674
 21
72.4126423665
 72
1
 10
258.2687926674
 20
72.4126423665
 11
258.7615040437
 21
72.8649552519
 72
1
 10
258.7615040437
 20
72.8649552519
 11
259.2355769044
 21
73.3685039347
 72
1
 10
259.2355769044
 20
73.3685039347
 11
259.6737951136
 21
73.8736597595
 72
1
 10
259.6737951136
 20
73.8736597595
 11
259.9732677508
 21
74.3694864542
 72
1
 10
259.9732677508
 20
74.3694864542
 11
260.0906205748
 21
74.8717130888
 72
1
 10
260.0906205748
 20
74.8717130888
 11
260.021639466
 21
75.3731219397
 72
1
 10
260.021639466
 20
75.3731219397
 11
258.1780746888
 21
75.7413633821
 72
1
 10
258.1780746888
 20
75.7413633821
 11
259.3928862071
 21
76.3501062655
 72
1
 10
259.3928862071
 20
76.3501062655
 11
260.7157521658
 21
77.0172473788
 72
1
 10
260.7157521658
 20
77.0172473788
 11
262.4719146485
 21
77.636561014
 72
1
 10
262.4719146485
 20
77.636561014
 11
264.4665292694
 21
78.2958958922
 72
1
 10
264.4665292694
 20
78.2958958922
 11
266.590005089
 21
79.2642783085
 97
1
330
2CC
 75
0
 76
1
 98
1
 10
0.0
 20
0.0
  0
SOLID
  5
2CE
100
AcDbEntity
  8
0
100
AcDbTrace
 62
1
  6
CONTINUOUS
 10
251.7645820573
 20
78.8410198146
 11
251.7403490993
 21
78.2301877141
 12
249.8273425613
 22
78.6337528542
 13
248.0692004067
 23
78.4147412908
  0
LWPOLYLINE
  5
2CF
100
AcDbEntity
  8
0
100
AcDbPolyline
 62
1
  6
CONTINUOUS
 90
9
 70
0
 10
248.0692004067
 20
78.4147412908
 10
251.7403490993
 20
78.2301877141
 10
250.4091283361
 20
77.1502293965
 10
241.5356080618
 20
77.5715359097
 10
248.0231877272
 20
80.9764945694
 10
246.5719905136
 20
79.8036932146
 10
245.015703192
 20
78.5062818851
 10
246.4545139491
 20
78.3460066345
 10
248.0692004067
 20
78.4147412908
  0
HATCH
  5
2D0
100
AcDbEntity
  8
0
100
AcDbHatch
 62
1
  6
CONTINUOUS
 10
0.0
 20
0.0
 30
0.0
210
0.0
220
0.0
230
1.0
  2
SOLID
 70
1
 71
1
 91
1
 92
1
 93
8
 72
1
 10
248.0692004067
 20
78.4147412908
 11
251.7403490993
 21
78.2301877141
 72
1
 10
251.7403490993
 20
78.2301877141
 11
250.4091283361
 21
77.1502293965
 72
1
 10
250.4091283361
 20
77.1502293965
 11
241.5356080618
 21
77.5715359097
 72
1
 10
241.5356080618
 20
77.5715359097
 11
248.0231877272
 21
80.9764945694
 72
1
 10
248.0231877272
 20
80.9764945694
 11
246.5719905136
 21
79.8036932146
 72
1
 10
246.5719905136
 20
79.8036932146
 11
245.015703192
 21
78.5062818851
 72
1
 10
245.015703192
 20
78.5062818851
 11
246.4545139491
 21
78.3460066345
 72
1
 10
246.4545139491
 20
78.3460066345
 11
248.0692004067
 21
78.4147412908
 97
1
330
2CF
 75
0
 76
1
 98
1
 10
0.0
 20
0.0
  0
LWPOLYLINE
  5
2D1
100
AcDbEntity
  8
0
100
AcDbPolyline
 62
1
  6
CONTINUOUS
 90
6
 70
0
 10
241.5356080618
 20
77.5715359097
 10
250.4091283361
 20
77.1502293965
 10
243.8850741381
 20
76.4158661321
 10
237.6706935547
 20
75.2115688848
 10
238.6455046876
 20
77.4860743438
 10
241.5356080618
 20
77.5715359097
  0
HATCH
  5
2D2
100
AcDbEntity
  8
0
100
AcDbHatch
 62
1
  6
CONTINUOUS
 10
0.0
 20
0.0
 30
0.0
210
0.0
220
0.0
230
1.0
  2
SOLID
 70
1
 71
1
 91
1
 92
1
 93
5
 72
1
 10
241.5356080618
 20
77.5715359097
 11
250.4091283361
 21
77.1502293965
 72
1
 10
250.4091283361
 20
77.1502293965
 11
243.8850741381
 21
76.4158661321
 72
1
 10
243.8850741381
 20
76.4158661321
 11
237.6706935547
 21
75.2115688848
 72
1
 10
237.6706935547
 20
75.2115688848
 11
238.6455046876
 21
77.4860743438
 72
1
 10
238.6455046876
 20
77.4860743438
 11
241.5356080618
 21
77.5715359097
 97
1
330
2D1
 75
0
 76
1
 98
1
 10
0.0
 20
0.0
  0
LWPOLYLINE
  5
2D3
100
AcDbEntity
  8
0
100
AcDbPolyline
 62
1
  6
CONTINUOUS
 90
28
 70
0
 10
235.7547842363
 20
77.021501111
 10
236.2659699861
 20
76.7564303288
 10
236.7130070458
 20
76.3744277733
 10
236.8030664432
 20
75.8188328155
 10
236.7269972544
 20
75.2050590176
 10
236.4974968256
 20
74.5533929736
 10
236.1638795897
 20
73.8729710097
 10
232.197087353
 20
72.9406842454
 10
232.6058437328
 20
73.9649447372
 10
229.9375753985
 20
71.7212228096
 10
227.5878891482
 20
69.2346418857
 10
225.5204498545
 20
66.4734064788
 10
222.6132218563
 20
66.370820289
 10
223.6906191789
 20
68.5940326531
 10
220.7659434513
 20
68.0588881588
 10
223.0090867164
 20
69.7730282734
 10
224.9631495417
 20
71.7004718803
 10
226.6558802006
 20
73.854856588
 10
230.1289930731
 20
73.830613372
 10
230.949260747
 20
74.4492916386
 10
231.6726439288
 20
75.0226615733
 10
232.3396561071
 20
75.5549565397
 10
232.9570152005
 20
76.034064286
 10
233.5401783201
 20
76.4634033066
 10
234.1042730993
 20
76.8400981706
 10
234.659787805
 20
77.0914229788
 10
235.2139213155
 20
77.1476934792
 10
235.7547842363
 20
77.021501111
  0
HATCH
  5
2D4
100
AcDbEntity
  8
0
100
AcDbHatch
 62
1
  6
CONTINUOUS
 10
0.0
 20
0.0
 30
0.0
210
0.0
220
0.0
230
1.0
  2
SOLID
 70
1
 71
1
 91
1
 92
1
 93
27
 72
1
 10
235.7547842363
 20
77.021501111
 11
236.2659699861
 21
76.7564303288
 72
1
 10
236.2659699861
 20
76.7564303288
 11
236.7130070458
 21
76.3744277733
 72
1
 10
236.7130070458
 20
76.3744277733
 11
236.8030664432
 21
75.8188328155
 72
1
 10
236.8030664432
 20
75.8188328155
 11
236.7269972544
 21
75.2050590176
 72
1
 10
236.7269972544
 20
75.2050590176
 11
236.4974968256
 21
74.5533929736
 72
1
 10
236.4974968256
 20
74.5533929736
 11
236.1638795897
 21
73.8729710097
 72
1
 10
236.1638795897
 20
73.8729710097
 11
232.197087353
 21
72.9406842454
 72
1
 10
232.197087353
 20
72.9406842454
 11
232.6058437328
 21
73.9649447372
 72
1
 10
232.6058437328
 20
73.9649447372
 11
229.9375753985
 21
71.7212228096
 72
1
 10
229.9375753985
 20
71.7212228096
 11
227.5878891482
 21
69.2346418857
 72
1
 10
227.5878891482
 20
69.2346418857
 11
225.5204498545
 21
66.4734064788
 72
1
 10
225.5204498545
 20
66.4734064788
 11
222.6132218563
 21
66.370820289
 72
1
 10
222.6132218563
 20
66.370820289
 11
223.6906191789
 21
68.5940326531
 72
1
 10
223.6906191789
 20
68.5940326531
 11
220.7659434513
 21
68.0588881588
 72
1
 10
220.7659434513
 20
68.0588881588
 11
223.0090867164
 21
69.7730282734
 72
1
 10
223.0090867164
 20
69.7730282734
 11
224.9631495417
 21
71.7004718803
 72
1
 10
224.9631495417
 20
71.7004718803
 11
226.6558802006
 21
73.854856588
 72
1
 10
226.6558802006
 20
73.854856588
 11
230.1289930731
 21
73.830613372
 72
1
 10
230.1289930731
 20
73.830613372
 11
230.949260747
 21
74.4492916386
 72
1
 10
230.949260747
 20
74.4492916386
 11
231.6726439288
 21
75.0226615733
 72
1
 10
231.6726439288
 20
75.0226615733
 11
232.3396561071
 21
75.5549565397
 72
1
 10
232.3396561071
 20
75.5549565397
 11
232.9570152005
 21
76.034064286
 72
1
 10
232.9570152005
 20
76.034064286
 11
233.5401783201
 21
76.4634033066
 72
1
 10
233.5401783201
 20
76.4634033066
 11
234.1042730993
 21
76.8400981706
 72
1
 10
234.1042730993
 20
76.8400981706
 11
234.659787805
 21
77.0914229788
 72
1
 10
234.659787805
 20
77.0914229788
 11
235.2139213155
 21
77.1476934792
 72
1
 10
235.2139213155
 20
77.1476934792
 11
235.7547842363
 21
77.021501111
 97
1
330
2D3
 75
0
 76
1
 98
1
 10
0.0
 20
0.0
  0
SOLID
  5
2D5
100
AcDbEntity
  8
0
100
AcDbTrace
 62
1
  6
CONTINUOUS
 10
251.9012572481
 20
75.9261927356
 11
251.7749441529
 21
76.3864074618
 12
255.9541374281
 22
76.4926784276
 13
255.064868638
 23
76.4926784276
  0
LWPOLYLINE
  5
2D6
100
AcDbEntity
  8
0
100
AcDbPolyline
 62
1
  6
CONTINUOUS
 90
16
 70
0
 10
249.2407916364
 20
76.0778167522
 10
248.2887993242
 20
74.9907341597
 10
247.6020291258
 20
73.9109688334
 10
247.1783680205
 20
72.8428668895
 10
247.0011128829
 20
71.8070076676
 10
247.0477175155
 20
70.7191823126
 10
243.5585373262
 20
70.9200460594
 10
243.598478299
 20
71.7471407498
 10
243.8470630793
 20
72.6636483209
 10
244.3181153517
 20
73.6649664141
 10
245.0097305271
 20
74.7229426497
 10
245.8519823948
 20
75.7404404347
 10
246.7068405699
 20
76.5868700403
 10
243.8850741381
 20
76.4158661321
 10
250.4091283361
 20
77.1502293965
 10
249.2407916364
 20
76.0778167522
  0
HATCH
  5
2D7
100
AcDbEntity
  8
0
100
AcDbHatch
 62
1
  6
CONTINUOUS
 10
0.0
 20
0.0
 30
0.0
210
0.0
220
0.0
230
1.0
  2
SOLID
 70
1
 71
1
 91
1
 92
1
 93
15
 72
1
 10
249.2407916364
 20
76.0778167522
 11
248.2887993242
 21
74.9907341597
 72
1
 10
248.2887993242
 20
74.9907341597
 11
247.6020291258
 21
73.9109688334
 72
1
 10
247.6020291258
 20
73.9109688334
 11
247.1783680205
 21
72.8428668895
 72
1
 10
247.1783680205
 20
72.8428668895
 11
247.0011128829
 21
71.8070076676
 72
1
 10
247.0011128829
 20
71.8070076676
 11
247.0477175155
 21
70.7191823126
 72
1
 10
247.0477175155
 20
70.7191823126
 11
243.5585373262
 21
70.9200460594
 72
1
 10
243.5585373262
 20
70.9200460594
 11
243.598478299
 21
71.7471407498
 72
1
 10
243.598478299
 20
71.7471407498
 11
243.8470630793
 21
72.6636483209
 72
1
 10
243.8470630793
 20
72.6636483209
 11
244.3181153517
 21
73.6649664141
 72
1
 10
244.3181153517
 20
73.6649664141
 11
245.0097305271
 21
74.7229426497
 72
1
 10
245.0097305271
 20
74.7229426497
 11
245.8519823948
 21
75.7404404347
 72
1
 10
245.8519823948
 20
75.7404404347
 11
246.7068405699
 21
76.5868700403
 72
1
 10
246.7068405699
 20
76.5868700403
 11
243.8850741381
 21
76.4158661321
 72
1
 10
243.8850741381
 20
76.4158661321
 11
250.4091283361
 21
77.1502293965
 72
1
 10
250.4091283361
 20
77.1502293965
 11
249.2407916364
 21
76.0778167522
 97
1
330
2D6
 75
0
 76
1
 98
1
 10
0.0
 20
0.0
  0
LWPOLYLINE
  5
2D8
100
AcDbEntity
  8
0
100
AcDbPolyline
 62
1
  6
CONTINUOUS
 90
32
 70
0
 10
267.4315009462
 20
75.3184819734
 10
264.475173905
 20
74.808457485
 10
265.3695529973
 20
75.4911033406
 10
270.7058945116
 20
76.0492774178
 10
270.6339788606
 20
74.0360280812
 10
270.4648977562
 20
73.1265368828
 10
270.0431698513
 20
72.2396476758
 10
269.3745788346
 20
71.5042892408
 10
268.5576305595
 20
70.936718944
 10
267.7207923113
 20
70.4976690111
 10
266.921690928
 20
70.1610959219
 10
266.1559606712
 20
69.9326591482
 10
265.4666936521
 20
69.811134564
 10
264.8348052982
 20
69.7761638992
 10
264.2600701081
 20
69.8413261546
 10
263.7898212605
 20
70.0182415581
 10
263.4308457535
 20
70.3151664427
 10
263.1710695128
 20
70.7281305402
 10
262.9982815791
 20
71.2618444137
 10
262.9370910989
 20
71.8951918535
 10
263.0259637376
 20
72.5914502538
 10
264.9348717455
 20
72.3652463886
 10
265.4767641157
 20
72.3179042535
 10
265.9942416894
 20
72.4530793917
 10
266.4983720046
 20
72.7648852889
 10
266.9910827033
 20
73.2171866719
 10
267.4651556799
 20
73.7207233532
 10
267.9033745682
 20
74.2258676647
 10
268.2028495906
 20
74.7216847389
 10
268.3202070936
 20
75.2239039339
 10
268.2512328549
 20
75.7253075991
 10
267.4315009462
 20
75.3184819734
  0
HATCH
  5
2D9
100
AcDbEntity
  8
0
100
AcDbHatch
 62
1
  6
CONTINUOUS
 10
0.0
 20
0.0
 30
0.0
210
0.0
220
0.0
230
1.0
  2
SOLID
 70
1
 71
1
 91
1
 92
1
 93
31
 72
1
 10
267.4315009462
 20
75.3184819734
 11
264.475173905
 21
74.808457485
 72
1
 10
264.475173905
 20
74.808457485
 11
265.3695529973
 21
75.4911033406
 72
1
 10
265.3695529973
 20
75.4911033406
 11
270.7058945116
 21
76.0492774178
 72
1
 10
270.7058945116
 20
76.0492774178
 11
270.6339788606
 21
74.0360280812
 72
1
 10
270.6339788606
 20
74.0360280812
 11
270.4648977562
 21
73.1265368828
 72
1
 10
270.4648977562
 20
73.1265368828
 11
270.0431698513
 21
72.2396476758
 72
1
 10
270.0431698513
 20
72.2396476758
 11
269.3745788346
 21
71.5042892408
 72
1
 10
269.3745788346
 20
71.5042892408
 11
268.5576305595
 21
70.936718944
 72
1
 10
268.5576305595
 20
70.936718944
 11
267.7207923113
 21
70.4976690111
 72
1
 10
267.7207923113
 20
70.4976690111
 11
266.921690928
 21
70.1610959219
 72
1
 10
266.921690928
 20
70.1610959219
 11
266.1559606712
 21
69.9326591482
 72
1
 10
266.1559606712
 20
69.9326591482
 11
265.4666936521
 21
69.811134564
 72
1
 10
265.4666936521
 20
69.811134564
 11
264.8348052982
 21
69.7761638992
 72
1
 10
264.8348052982
 20
69.7761638992
 11
264.2600701081
 21
69.8413261546
 72
1
 10
264.2600701081
 20
69.8413261546
 11
263.7898212605
 21
70.0182415581
 72
1
 10
263.7898212605
 20
70.0182415581
 11
263.4308457535
 21
70.3151664427
 72
1
 10
263.4308457535
 20
70.3151664427
 11
263.1710695128
 21
70.7281305402
 72
1
 10
263.1710695128
 20
70.7281305402
 11
262.9982815791
 21
71.2618444137
 72
1
 10
262.9982815791
 20
71.2618444137
 11
262.9370910989
 21
71.8951918535
 72
1
 10
262.9370910989
 20
71.8951918535
 11
263.0259637376
 21
72.5914502538
 72
1
 10
263.0259637376
 20
72.5914502538
 11
264.9348717455
 21
72.3652463886
 72
1
 10
264.9348717455
 20
72.3652463886
 11
265.4767641157
 21
72.3179042535
 72
1
 10
265.4767641157
 20
72.3179042535
 11
265.9942416894
 21
72.4530793917
 72
1
 10
265.9942416894
 20
72.4530793917
 11
266.4983720046
 21
72.7648852889
 72
1
 10
266.4983720046
 20
72.7648852889
 11
266.9910827033
 21
73.2171866719
 72
1
 10
266.9910827033
 20
73.2171866719
 11
267.4651556799
 21
73.7207233532
 72
1
 10
267.4651556799
 20
73.7207233532
 11
267.9033745682
 21
74.2258676647
 72
1
 10
267.9033745682
 20
74.2258676647
 11
268.2028495906
 21
74.7216847389
 72
1
 10
268.2028495906
 20
74.7216847389
 11
268.3202070936
 21
75.2239039339
 72
1
 10
268.3202070936
 20
75.2239039339
 11
268.2512328549
 21
75.7253075991
 72
1
 10
268.2512328549
 20
75.7253075991
 11
267.4315009462
 21
75.3184819734
 97
1
330
2D8
 75
0
 76
1
 98
1
 10
0.0
 20
0.0
  0
LWPOLYLINE
  5
2DA
100
AcDbEntity
  8
0
100
AcDbPolyline
 62
1
  6
CONTINUOUS
 90
20
 70
0
 10
237.6706935547
 20
75.2115688848
 10
243.8850741381
 20
76.4158661321
 10
238.6963131232
 20
66.3873794773
 10
272.2228531547
 20
66.4877847006
 10
275.1130373058
 20
64.5211185879
 10
262.4677586849
 20
64.6727457534
 10
249.8378576924
 20
64.3509928817
 10
214.4385531231
 20
63.4223953927
 10
224.7158614293
 20
64.8116848804
 10
235.0418214703
 20
65.8728329979
 10
237.2819969046
 20
70.250678454
 10
235.7192339935
 20
70.7189432837
 10
236.2922199588
 20
71.1422560971
 10
236.8915477618
 20
71.6400133376
 10
237.5163574963
 20
72.2227647681
 10
238.1783135203
 20
72.8772572611
 10
238.8809419751
 20
73.6062561751
 10
239.6209475564
 20
74.4314838594
 10
240.3897930203
 20
75.3825727935
 10
237.6706935547
 20
75.2115688848
  0
HATCH
  5
2DB
100
AcDbEntity
  8
0
100
AcDbHatch
 62
1
  6
CONTINUOUS
 10
0.0
 20
0.0
 30
0.0
210
0.0
220
0.0
230
1.0
  2
SOLID
 70
1
 71
1
 91
1
 92
1
 93
19
 72
1
 10
237.6706935547
 20
75.2115688848
 11
243.8850741381
 21
76.4158661321
 72
1
 10
243.8850741381
 20
76.4158661321
 11
238.6963131232
 21
66.3873794773
 72
1
 10
238.6963131232
 20
66.3873794773
 11
272.2228531547
 21
66.4877847006
 72
1
 10
272.2228531547
 20
66.4877847006
 11
275.1130373058
 21
64.5211185879
 72
1
 10
275.1130373058
 20
64.5211185879
 11
262.4677586849
 21
64.6727457534
 72
1
 10
262.4677586849
 20
64.6727457534
 11
249.8378576924
 21
64.3509928817
 72
1
 10
249.8378576924
 20
64.3509928817
 11
214.4385531231
 21
63.4223953927
 72
1
 10
214.4385531231
 20
63.4223953927
 11
224.7158614293
 21
64.8116848804
 72
1
 10
224.7158614293
 20
64.8116848804
 11
235.0418214703
 21
65.8728329979
 72
1
 10
235.0418214703
 20
65.8728329979
 11
237.2819969046
 21
70.250678454
 72
1
 10
237.2819969046
 20
70.250678454
 11
235.7192339935
 21
70.7189432837
 72
1
 10
235.7192339935
 20
70.7189432837
 11
236.2922199588
 21
71.1422560971
 72
1
 10
236.2922199588
 20
71.1422560971
 11
236.8915477618
 21
71.6400133376
 72
1
 10
236.8915477618
 20
71.6400133376
 11
237.5163574963
 21
72.2227647681
 72
1
 10
237.5163574963
 20
72.2227647681
 11
238.1783135203
 21
72.8772572611
 72
1
 10
238.1783135203
 20
72.8772572611
 11
238.8809419751
 21
73.6062561751
 72
1
 10
238.8809419751
 20
73.6062561751
 11
239.6209475564
 21
74.4314838594
 72
1
 10
239.6209475564
 20
74.4314838594
 11
240.3897930203
 21
75.3825727935
 72
1
 10
240.3897930203
 20
75.3825727935
 11
237.6706935547
 21
75.2115688848
 97
1
330
2DA
 75
0
 76
1
 98
1
 10
0.0
 20
0.0
  0
LWPOLYLINE
  5
2DC
100
AcDbEntity
  8
0
100
AcDbPolyline
 62
1
  6
CONTINUOUS
 90
6
 70
0
 10
258.1780746888
 20
75.7413633821
 10
260.021639466
 20
75.3731219397
 10
259.2019019319
 20
74.9662812385
 10
256.2308852034
 20
74.4893935338
 10
257.1187813497
 20
75.1310098396
 10
258.1780746888
 20
75.7413633821
  0
HATCH
  5
2DD
100
AcDbEntity
  8
0
100
AcDbHatch
 62
1
  6
CONTINUOUS
 10
0.0
 20
0.0
 30
0.0
210
0.0
220
0.0
230
1.0
  2
SOLID
 70
1
 71
1
 91
1
 92
1
 93
5
 72
1
 10
258.1780746888
 20
75.7413633821
 11
260.021639466
 21
75.3731219397
 72
1
 10
260.021639466
 20
75.3731219397
 11
259.2019019319
 21
74.9662812385
 72
1
 10
259.2019019319
 20
74.9662812385
 11
256.2308852034
 21
74.4893935338
 72
1
 10
256.2308852034
 20
74.4893935338
 11
257.1187813497
 21
75.1310098396
 72
1
 10
257.1187813497
 20
75.1310098396
 11
258.1780746888
 21
75.7413633821
 97
1
330
2DC
 75
0
 76
1
 98
1
 10
0.0
 20
0.0
  0
LWPOLYLINE
  5
2DE
100
AcDbEntity
  8
0
100
AcDbPolyline
 62
1
  6
CONTINUOUS
 90
19
 70
0
 10
217.7074248289
 20
75.0722484449
 10
218.664840046
 20
74.9808502286
 10
219.4609577751
 20
74.6844649294
 10
220.0906516822
 20
74.2241566138
 10
224.4151038533
 20
75.6093125059
 10
220.1130267802
 20
68.0739933695
 10
216.0855821781
 20
67.8776351348
 10
216.5295823528
 20
68.2979024693
 10
216.989603723
 20
68.7860501763
 10
217.4641242662
 20
69.3574843168
 10
217.9485682973
 20
70.0293440074
 10
218.412372302
 20
70.7985019151
 10
218.7645037353
 20
71.6304911849
 10
218.9158760367
 20
72.4795086395
 10
218.8361114348
 20
73.2590386643
 10
214.3158333092
 20
73.7476709987
 10
215.4831067764
 20
74.4881130504
 10
216.6269200043
 20
74.9196956253
 10
217.7074248289
 20
75.0722484449
  0
HATCH
  5
2DF
100
AcDbEntity
  8
0
100
AcDbHatch
 62
1
  6
CONTINUOUS
 10
0.0
 20
0.0
 30
0.0
210
0.0
220
0.0
230
1.0
  2
SOLID
 70
1
 71
1
 91
1
 92
1
 93
18
 72
1
 10
217.7074248289
 20
75.0722484449
 11
218.664840046
 21
74.9808502286
 72
1
 10
218.664840046
 20
74.9808502286
 11
219.4609577751
 21
74.6844649294
 72
1
 10
219.4609577751
 20
74.6844649294
 11
220.0906516822
 21
74.2241566138
 72
1
 10
220.0906516822
 20
74.2241566138
 11
224.4151038533
 21
75.6093125059
 72
1
 10
224.4151038533
 20
75.6093125059
 11
220.1130267802
 21
68.0739933695
 72
1
 10
220.1130267802
 20
68.0739933695
 11
216.0855821781
 21
67.8776351348
 72
1
 10
216.0855821781
 20
67.8776351348
 11
216.5295823528
 21
68.2979024693
 72
1
 10
216.5295823528
 20
68.2979024693
 11
216.989603723
 21
68.7860501763
 72
1
 10
216.989603723
 20
68.7860501763
 11
217.4641242662
 21
69.3574843168
 72
1
 10
217.4641242662
 20
69.3574843168
 11
217.9485682973
 21
70.0293440074
 72
1
 10
217.9485682973
 20
70.0293440074
 11
218.412372302
 21
70.7985019151
 72
1
 10
218.412372302
 20
70.7985019151
 11
218.7645037353
 21
71.6304911849
 72
1
 10
218.7645037353
 20
71.6304911849
 11
218.9158760367
 21
72.4795086395
 72
1
 10
218.9158760367
 20
72.4795086395
 11
218.8361114348
 21
73.2590386643
 72
1
 10
218.8361114348
 20
73.2590386643
 11
214.3158333092
 21
73.7476709987
 72
1
 10
214.3158333092
 20
73.7476709987
 11
215.4831067764
 21
74.4881130504
 72
1
 10
215.4831067764
 20
74.4881130504
 11
216.6269200043
 21
74.9196956253
 72
1
 10
216.6269200043
 20
74.9196956253
 11
217.7074248289
 21
75.0722484449
 97
1
330
2DE
 75
0
 76
1
 98
1
 10
0.0
 20
0.0
  0
LWPOLYLINE
  5
2E0
100
AcDbEntity
  8
0
100
AcDbPolyline
 62
1
  6
CONTINUOUS
 90
8
 70
0
 10
266.0442865088
 20
74.4801077873
 10
265.5376383874
 20
74.0082012115
 10
263.3060646738
 20
73.3428480668
 10
263.7901498471
 20
74.0937213156
 10
264.475173905
 20
74.808457485
 10
267.4315009462
 20
75.3184819734
 10
266.6891824685
 20
74.9159327659
 10
266.0442865088
 20
74.4801077873
  0
HATCH
  5
2E1
100
AcDbEntity
  8
0
100
AcDbHatch
 62
1
  6
CONTINUOUS
 10
0.0
 20
0.0
 30
0.0
210
0.0
220
0.0
230
1.0
  2
SOLID
 70
1
 71
1
 91
1
 92
1
 93
7
 72
1
 10
266.0442865088
 20
74.4801077873
 11
265.5376383874
 21
74.0082012115
 72
1
 10
265.5376383874
 20
74.0082012115
 11
263.3060646738
 21
73.3428480668
 72
1
 10
263.3060646738
 20
73.3428480668
 11
263.7901498471
 21
74.0937213156
 72
1
 10
263.7901498471
 20
74.0937213156
 11
264.475173905
 21
74.808457485
 72
1
 10
264.475173905
 20
74.808457485
 11
267.4315009462
 21
75.3184819734
 72
1
 10
267.4315009462
 20
75.3184819734
 11
266.6891824685
 21
74.9159327659
 72
1
 10
266.6891824685
 20
74.9159327659
 11
266.0442865088
 21
74.4801077873
 97
1
330
2E0
 75
0
 76
1
 98
1
 10
0.0
 20
0.0
  0
LWPOLYLINE
  5
2E2
100
AcDbEntity
  8
0
100
AcDbPolyline
 62
1
  6
CONTINUOUS
 90
8
 70
0
 10
257.8146804203
 20
74.1278798209
 10
257.3080320008
 20
73.6559613553
 10
254.9512167062
 20
73.0725428069
 10
255.5112070484
 20
73.8040404528
 10
256.2308852034
 20
74.4893935338
 10
259.2019019319
 20
74.9662812385
 10
258.4595790107
 20
74.5637180151
 10
257.8146804203
 20
74.1278798209
  0
HATCH
  5
2E3
100
AcDbEntity
  8
0
100
AcDbHatch
 62
1
  6
CONTINUOUS
 10
0.0
 20
0.0
 30
0.0
210
0.0
220
0.0
230
1.0
  2
SOLID
 70
1
 71
1
 91
1
 92
1
 93
7
 72
1
 10
257.8146804203
 20
74.1278798209
 11
257.3080320008
 21
73.6559613553
 72
1
 10
257.3080320008
 20
73.6559613553
 11
254.9512167062
 21
73.0725428069
 72
1
 10
254.9512167062
 20
73.0725428069
 11
255.5112070484
 21
73.8040404528
 72
1
 10
255.5112070484
 20
73.8040404528
 11
256.2308852034
 21
74.4893935338
 72
1
 10
256.2308852034
 20
74.4893935338
 11
259.2019019319
 21
74.9662812385
 72
1
 10
259.2019019319
 20
74.9662812385
 11
258.4595790107
 21
74.5637180151
 72
1
 10
258.4595790107
 20
74.5637180151
 11
257.8146804203
 21
74.1278798209
 97
1
330
2E2
 75
0
 76
1
 98
1
 10
0.0
 20
0.0
  0
SOLID
  5
2E4
100
AcDbEntity
  8
0
100
AcDbTrace
 62
1
  6
CONTINUOUS
 10
231.6681090263
 20
76.6095682447
 11
230.1289930731
 21
73.830613372
 12
228.1195154004
 22
76.2889662075
 13
226.6558802006
 23
73.854856588
  0
LWPOLYLINE
  5
2E5
100
AcDbEntity
  8
0
100
AcDbPolyline
 62
1
  6
CONTINUOUS
 90
7
 70
0
 10
264.9861013601
 20
72.9625703693
 10
264.9348717455
 20
72.3652463886
 10
263.0259637376
 20
72.5914502538
 10
263.3060646738
 20
73.3428480668
 10
265.5376383874
 20
74.0082012115
 10
265.1821310318
 20
73.4962254091
 10
264.9861013601
 20
72.9625703693
  0
HATCH
  5
2E6
100
AcDbEntity
  8
0
100
AcDbHatch
 62
1
  6
CONTINUOUS
 10
0.0
 20
0.0
 30
0.0
210
0.0
220
0.0
230
1.0
  2
SOLID
 70
1
 71
1
 91
1
 92
1
 93
6
 72
1
 10
264.9861013601
 20
72.9625703693
 11
264.9348717455
 21
72.3652463886
 72
1
 10
264.9348717455
 20
72.3652463886
 11
263.0259637376
 21
72.5914502538
 72
1
 10
263.0259637376
 20
72.5914502538
 11
263.3060646738
 21
73.3428480668
 72
1
 10
263.3060646738
 20
73.3428480668
 11
265.5376383874
 21
74.0082012115
 72
1
 10
265.5376383874
 20
74.0082012115
 11
265.1821310318
 21
73.4962254091
 72
1
 10
265.1821310318
 20
73.4962254091
 11
264.9861013601
 21
72.9625703693
 97
1
330
2E5
 75
0
 76
1
 98
1
 10
0.0
 20
0.0
  0
LWPOLYLINE
  5
2E7
100
AcDbEntity
  8
0
100
AcDbPolyline
 62
1
  6
CONTINUOUS
 90
8
 70
0
 10
256.7565013513
 20
72.6103115373
 10
256.7052783566
 20
72.0129799523
 10
254.4805013418
 20
71.5559898301
 10
254.5904961457
 20
72.3126735438
 10
254.9512167062
 20
73.0725428069
 10
257.3080320008
 20
73.6559613553
 10
256.9525267749
 20
73.1439751702
 10
256.7565013513
 20
72.6103115373
  0
HATCH
  5
2E8
100
AcDbEntity
  8
0
100
AcDbHatch
 62
1
  6
CONTINUOUS
 10
0.0
 20
0.0
 30
0.0
210
0.0
220
0.0
230
1.0
  2
SOLID
 70
1
 71
1
 91
1
 92
1
 93
7
 72
1
 10
256.7565013513
 20
72.6103115373
 11
256.7052783566
 21
72.0129799523
 72
1
 10
256.7052783566
 20
72.0129799523
 11
254.4805013418
 21
71.5559898301
 72
1
 10
254.4805013418
 20
71.5559898301
 11
254.5904961457
 21
72.3126735438
 72
1
 10
254.5904961457
 20
72.3126735438
 11
254.9512167062
 21
73.0725428069
 72
1
 10
254.9512167062
 20
73.0725428069
 11
257.3080320008
 21
73.6559613553
 72
1
 10
257.3080320008
 20
73.6559613553
 11
256.9525267749
 21
73.1439751702
 72
1
 10
256.9525267749
 20
73.1439751702
 11
256.7565013513
 21
72.6103115373
 97
1
330
2E7
 75
0
 76
1
 98
1
 10
0.0
 20
0.0
  0
LWPOLYLINE
  5
2E9
100
AcDbEntity
  8
0
100
AcDbPolyline
 62
1
  6
CONTINUOUS
 90
13
 70
0
 10
235.3056194641
 20
72.3906276671
 10
234.7925121514
 20
71.573645813
 10
234.2367393665
 20
70.6824657556
 10
233.6561001422
 20
69.6835464547
 10
230.032377951
 20
69.113003657
 10
230.2797327911
 20
69.8222983686
 10
230.6698657505
 20
70.5487607581
 10
231.1480894038
 20
71.2854479474
 10
231.6809561729
 20
72.0705244249
 10
232.197087353
 20
72.9406842454
 10
236.1638795897
 20
73.8729710097
 10
235.7648215918
 20
73.1536044336
 10
235.3056194641
 20
72.3906276671
  0
HATCH
  5
2EA
100
AcDbEntity
  8
0
100
AcDbHatch
 62
1
  6
CONTINUOUS
 10
0.0
 20
0.0
 30
0.0
210
0.0
220
0.0
230
1.0
  2
SOLID
 70
1
 71
1
 91
1
 92
1
 93
12
 72
1
 10
235.3056194641
 20
72.3906276671
 11
234.7925121514
 21
71.573645813
 72
1
 10
234.7925121514
 20
71.573645813
 11
234.2367393665
 21
70.6824657556
 72
1
 10
234.2367393665
 20
70.6824657556
 11
233.6561001422
 21
69.6835464547
 72
1
 10
233.6561001422
 20
69.6835464547
 11
230.032377951
 21
69.113003657
 72
1
 10
230.032377951
 20
69.113003657
 11
230.2797327911
 21
69.8222983686
 72
1
 10
230.2797327911
 20
69.8222983686
 11
230.6698657505
 21
70.5487607581
 72
1
 10
230.6698657505
 20
70.5487607581
 11
231.1480894038
 21
71.2854479474
 72
1
 10
231.1480894038
 20
71.2854479474
 11
231.6809561729
 21
72.0705244249
 72
1
 10
231.6809561729
 20
72.0705244249
 11
232.197087353
 21
72.9406842454
 72
1
 10
232.197087353
 20
72.9406842454
 11
236.1638795897
 21
73.8729710097
 72
1
 10
236.1638795897
 20
73.8729710097
 11
235.7648215918
 21
73.1536044336
 72
1
 10
235.7648215918
 20
73.1536044336
 11
235.3056194641
 21
72.3906276671
 97
1
330
2E9
 75
0
 76
1
 98
1
 10
0.0
 20
0.0
  0
LWPOLYLINE
  5
2EB
100
AcDbEntity
  8
0
100
AcDbPolyline
 62
1
  6
CONTINUOUS
 90
9
 70
0
 10
217.7058054869
 20
73.2353711414
 10
216.4476358416
 20
72.2814705041
 10
215.3955703166
 20
71.3219584842
 10
210.7650823691
 20
70.0290276624
 10
211.9912627664
 20
71.4494336943
 10
213.1570934455
 20
72.7189348392
 10
214.3158333092
 20
73.7476709987
 10
218.8361114348
 20
73.2590386643
 10
217.7058054869
 20
73.2353711414
  0
HATCH
  5
2EC
100
AcDbEntity
  8
0
100
AcDbHatch
 62
1
  6
CONTINUOUS
 10
0.0
 20
0.0
 30
0.0
210
0.0
220
0.0
230
1.0
  2
SOLID
 70
1
 71
1
 91
1
 92
1
 93
8
 72
1
 10
217.7058054869
 20
73.2353711414
 11
216.4476358416
 21
72.2814705041
 72
1
 10
216.4476358416
 20
72.2814705041
 11
215.3955703166
 21
71.3219584842
 72
1
 10
215.3955703166
 20
71.3219584842
 11
210.7650823691
 21
70.0290276624
 72
1
 10
210.7650823691
 20
70.0290276624
 11
211.9912627664
 21
71.4494336943
 72
1
 10
211.9912627664
 20
71.4494336943
 11
213.1570934455
 21
72.7189348392
 72
1
 10
213.1570934455
 20
72.7189348392
 11
214.3158333092
 21
73.7476709987
 72
1
 10
214.3158333092
 20
73.7476709987
 11
218.8361114348
 21
73.2590386643
 72
1
 10
218.8361114348
 20
73.2590386643
 11
217.7058054869
 21
73.2353711414
 97
1
330
2EB
 75
0
 76
1
 98
1
 10
0.0
 20
0.0
  0
SOLID
  5
2ED
100
AcDbEntity
  8
0
100
AcDbTrace
 62
1
  6
CONTINUOUS
 10
254.4805013418
 20
71.5559898301
 11
256.7052783566
 21
72.0129799523
 12
257.2471778001
 22
71.9656437462
 13
257.2471778001
 23
71.9656437462
  0
SOLID
  5
2EE
100
AcDbEntity
  8
0
100
AcDbTrace
 62
1
  6
CONTINUOUS
 10
210.7650823691
 20
70.0290276624
 11
215.3955703166
 21
71.3219584842
 12
214.5580823947
 22
70.340229229
 13
214.5580823947
 23
70.340229229
  0
LWPOLYLINE
  5
2EF
100
AcDbEntity
  8
0
100
AcDbPolyline
 62
1
  6
CONTINUOUS
 90
9
 70
0
 10
235.1780179853
 20
70.3463931546
 10
235.7192339935
 20
70.7189432837
 10
237.2819969046
 20
70.250678454
 10
236.3943935229
 20
69.6661500025
 10
230.032377951
 20
69.113003657
 10
233.6561001422
 20
69.6835464547
 10
234.1628598364
 20
69.7837819979
 10
234.664288552
 20
70.0179418474
 10
235.1780179853
 20
70.3463931546
  0
HATCH
  5
2F0
100
AcDbEntity
  8
0
100
AcDbHatch
 62
1
  6
CONTINUOUS
 10
0.0
 20
0.0
 30
0.0
210
0.0
220
0.0
230
1.0
  2
SOLID
 70
1
 71
1
 91
1
 92
1
 93
8
 72
1
 10
235.1780179853
 20
70.3463931546
 11
235.7192339935
 21
70.7189432837
 72
1
 10
235.7192339935
 20
70.7189432837
 11
237.2819969046
 21
70.250678454
 72
1
 10
237.2819969046
 20
70.250678454
 11
236.3943935229
 21
69.6661500025
 72
1
 10
236.3943935229
 20
69.6661500025
 11
230.032377951
 21
69.113003657
 72
1
 10
230.032377951
 20
69.113003657
 11
233.6561001422
 21
69.6835464547
 72
1
 10
233.6561001422
 20
69.6835464547
 11
234.1628598364
 21
69.7837819979
 72
1
 10
234.1628598364
 20
69.7837819979
 11
234.664288552
 21
70.0179418474
 72
1
 10
234.664288552
 20
70.0179418474
 11
235.1780179853
 21
70.3463931546
 97
1
330
2EF
 75
0
 76
1
 98
1
 10
0.0
 20
0.0
  0
LWPOLYLINE
  5
2F1
100
AcDbEntity
  8
0
100
AcDbPolyline
 62
1
  6
CONTINUOUS
 90
10
 70
0
 10
234.9490194568
 20
68.651301549
 10
234.3111368472
 20
68.2288699858
 10
233.7001580572
 20
67.8623588247
 10
230.3416379262
 20
67.4163068719
 10
230.094445897
 20
67.8857480015
 10
229.9748076769
 20
68.4545202083
 10
230.032377951
 20
69.113003657
 10
236.3943935229
 20
69.6661500025
 10
235.6325807126
 20
69.1306243554
 10
234.9490194568
 20
68.651301549
  0
HATCH
  5
2F2
100
AcDbEntity
  8
0
100
AcDbHatch
 62
1
  6
CONTINUOUS
 10
0.0
 20
0.0
 30
0.0
210
0.0
220
0.0
230
1.0
  2
SOLID
 70
1
 71
1
 91
1
 92
1
 93
9
 72
1
 10
234.9490194568
 20
68.651301549
 11
234.3111368472
 21
68.2288699858
 72
1
 10
234.3111368472
 20
68.2288699858
 11
233.7001580572
 21
67.8623588247
 72
1
 10
233.7001580572
 20
67.8623588247
 11
230.3416379262
 21
67.4163068719
 72
1
 10
230.3416379262
 20
67.4163068719
 11
230.094445897
 21
67.8857480015
 72
1
 10
230.094445897
 20
67.8857480015
 11
229.9748076769
 21
68.4545202083
 72
1
 10
229.9748076769
 20
68.4545202083
 11
230.032377951
 21
69.113003657
 72
1
 10
230.032377951
 20
69.113003657
 11
236.3943935229
 21
69.6661500025
 72
1
 10
236.3943935229
 20
69.6661500025
 11
235.6325807126
 21
69.1306243554
 72
1
 10
235.6325807126
 20
69.1306243554
 11
234.9490194568
 21
68.651301549
 97
1
330
2F1
 75
0
 76
1
 98
1
 10
0.0
 20
0.0
  0
SOLID
  5
2F3
100
AcDbEntity
  8
0
100
AcDbTrace
 62
1
  6
CONTINUOUS
 10
224.4151038533
 20
75.6093125059
 11
220.0906516822
 21
74.2241566138
 12
220.9413900688
 22
75.1015512545
 13
220.9413900688
 23
75.1015512545
  0
LWPOLYLINE
  5
2F4
100
AcDbEntity
  8
0
100
AcDbPolyline
 62
1
  6
CONTINUOUS
 90
26
 70
0
 10
222.2774138708
 20
67.6597482807
 10
221.6910789801
 20
67.2253158143
 10
221.1514700902
 20
66.8312946003
 10
220.6633782035
 20
66.4958486927
 10
220.1978712717
 20
66.2028683441
 10
219.738160813
 20
65.9423891203
 10
219.2887678629
 20
65.7195862191
 10
218.869626443
 20
65.5604473342
 10
218.4972291279
 20
65.4822943024
 10
218.1452878847
 20
65.4938111672
 10
217.8402652341
 20
65.6123899613
 10
217.5752594982
 20
65.8253205482
 10
217.3240683264
 20
66.1055957881
 10
217.0608069231
 20
66.4307781058
 10
216.7556311949
 20
66.7504699682
 10
215.9042615216
 20
66.1035193405
 10
214.1234166354
 20
66.5572908241
 10
214.4996940111
 20
66.6545668178
 10
214.874967584
 20
66.8784989944
 10
215.2582238725
 20
67.1787794876
 10
215.6615412685
 20
67.5100629451
 10
216.0855821781
 20
67.8776351348
 10
220.7659434513
 20
68.0588881588
 10
223.6906191789
 20
68.5940326531
 10
222.9198211905
 20
68.1130930575
 10
222.2774138708
 20
67.6597482807
  0
HATCH
  5
2F5
100
AcDbEntity
  8
0
100
AcDbHatch
 62
1
  6
CONTINUOUS
 10
0.0
 20
0.0
 30
0.0
210
0.0
220
0.0
230
1.0
  2
SOLID
 70
1
 71
1
 91
1
 92
1
 93
25
 72
1
 10
222.2774138708
 20
67.6597482807
 11
221.6910789801
 21
67.2253158143
 72
1
 10
221.6910789801
 20
67.2253158143
 11
221.1514700902
 21
66.8312946003
 72
1
 10
221.1514700902
 20
66.8312946003
 11
220.6633782035
 21
66.4958486927
 72
1
 10
220.6633782035
 20
66.4958486927
 11
220.1978712717
 21
66.2028683441
 72
1
 10
220.1978712717
 20
66.2028683441
 11
219.738160813
 21
65.9423891203
 72
1
 10
219.738160813
 20
65.9423891203
 11
219.2887678629
 21
65.7195862191
 72
1
 10
219.2887678629
 20
65.7195862191
 11
218.869626443
 21
65.5604473342
 72
1
 10
218.869626443
 20
65.5604473342
 11
218.4972291279
 21
65.4822943024
 72
1
 10
218.4972291279
 20
65.4822943024
 11
218.1452878847
 21
65.4938111672
 72
1
 10
218.1452878847
 20
65.4938111672
 11
217.8402652341
 21
65.6123899613
 72
1
 10
217.8402652341
 20
65.6123899613
 11
217.5752594982
 21
65.8253205482
 72
1
 10
217.5752594982
 20
65.8253205482
 11
217.3240683264
 21
66.1055957881
 72
1
 10
217.3240683264
 20
66.1055957881
 11
217.0608069231
 21
66.4307781058
 72
1
 10
217.0608069231
 20
66.4307781058
 11
216.7556311949
 21
66.7504699682
 72
1
 10
216.7556311949
 20
66.7504699682
 11
215.9042615216
 21
66.1035193405
 72
1
 10
215.9042615216
 20
66.1035193405
 11
214.1234166354
 21
66.5572908241
 72
1
 10
214.1234166354
 20
66.5572908241
 11
214.4996940111
 21
66.6545668178
 72
1
 10
214.4996940111
 20
66.6545668178
 11
214.874967584
 21
66.8784989944
 72
1
 10
214.874967584
 20
66.8784989944
 11
215.2582238725
 21
67.1787794876
 72
1
 10
215.2582238725
 20
67.1787794876
 11
215.6615412685
 21
67.5100629451
 72
1
 10
215.6615412685
 20
67.5100629451
 11
216.0855821781
 21
67.8776351348
 72
1
 10
216.0855821781
 20
67.8776351348
 11
220.7659434513
 21
68.0588881588
 72
1
 10
220.7659434513
 20
68.0588881588
 11
223.6906191789
 21
68.5940326531
 72
1
 10
223.6906191789
 20
68.5940326531
 11
222.9198211905
 21
68.1130930575
 72
1
 10
222.9198211905
 20
68.1130930575
 11
222.2774138708
 21
67.6597482807
 97
1
330
2F4
 75
0
 76
1
 98
1
 10
0.0
 20
0.0
  0
SOLID
  5
2F6
100
AcDbEntity
  8
0
100
AcDbTrace
 62
1
  6
CONTINUOUS
 10
216.0855821781
 20
67.8776351348
 11
220.1130267802
 21
68.0739933695
 12
220.7659434513
 22
68.0588881588
 13
220.7659434513
 23
68.0588881588
  0
LWPOLYLINE
  5
2F7
100
AcDbEntity
  8
0
100
AcDbPolyline
 62
1
  6
CONTINUOUS
 90
6
 70
0
 10
232.5612633309
 20
67.3009463219
 10
230.6911509599
 20
67.0834428171
 10
230.3416379262
 20
67.4163068719
 10
233.7001580572
 20
67.8623588247
 10
233.1038395088
 20
67.5481005594
 10
232.5612633309
 20
67.3009463219
  0
HATCH
  5
2F8
100
AcDbEntity
  8
0
100
AcDbHatch
 62
1
  6
CONTINUOUS
 10
0.0
 20
0.0
 30
0.0
210
0.0
220
0.0
230
1.0
  2
SOLID
 70
1
 71
1
 91
1
 92
1
 93
5
 72
1
 10
232.5612633309
 20
67.3009463219
 11
230.6911509599
 21
67.0834428171
 72
1
 10
230.6911509599
 20
67.0834428171
 11
230.3416379262
 21
67.4163068719
 72
1
 10
230.3416379262
 20
67.4163068719
 11
233.7001580572
 21
67.8623588247
 72
1
 10
233.7001580572
 20
67.8623588247
 11
233.1038395088
 21
67.5481005594
 72
1
 10
233.1038395088
 20
67.5481005594
 11
232.5612633309
 21
67.3009463219
 97
1
330
2F7
 75
0
 76
1
 98
1
 10
0.0
 20
0.0
  0
LWPOLYLINE
  5
2F9
100
AcDbEntity
  8
0
100
AcDbPolyline
 62
1
  6
CONTINUOUS
 90
6
 70
0
 10
231.5415229179
 20
66.9685052336
 10
231.101922903
 20
66.9485915677
 10
230.6911509599
 20
67.0834428171
 10
232.5612633309
 20
67.3009463219
 10
232.0389783648
 20
67.0992998666
 10
231.5415229179
 20
66.9685052336
  0
HATCH
  5
2FA
100
AcDbEntity
  8
0
100
AcDbHatch
 62
1
  6
CONTINUOUS
 10
0.0
 20
0.0
 30
0.0
210
0.0
220
0.0
230
1.0
  2
SOLID
 70
1
 71
1
 91
1
 92
1
 93
5
 72
1
 10
231.5415229179
 20
66.9685052336
 11
231.101922903
 21
66.9485915677
 72
1
 10
231.101922903
 20
66.9485915677
 11
230.6911509599
 21
67.0834428171
 72
1
 10
230.6911509599
 20
67.0834428171
 11
232.5612633309
 21
67.3009463219
 72
1
 10
232.5612633309
 20
67.3009463219
 11
232.0389783648
 21
67.0992998666
 72
1
 10
232.0389783648
 20
67.0992998666
 11
231.5415229179
 21
66.9685052336
 97
1
330
2F9
 75
0
 76
1
 98
1
 10
0.0
 20
0.0
  0
LWPOLYLINE
  5
2FB
100
AcDbEntity
  8
0
100
AcDbPolyline
 62
1
  6
CONTINUOUS
 90
42
 70
0
 10
196.6970410038
 20
66.0667119583
 10
193.3367388148
 20
64.9631277462
 10
192.937245357
 20
64.183599892
 10
192.5446673271
 20
63.4723844976
 10
192.163986611
 20
62.8266103094
 10
191.797918099
 20
62.2413437575
 10
191.4488954365
 20
61.7127092746
 10
191.1181580396
 20
61.2361260262
 10
190.805817795
 20
60.8064185683
 10
190.5111563424
 20
60.4189726213
 10
190.226910185
 20
60.0738159266
 10
189.9412253117
 20
59.7702650426
 10
189.6480465593
 20
59.5076676247
 10
189.3444149944
 20
59.2839662855
 10
189.0436420936
 20
59.1115137942
 10
188.759467267
 20
59.0186867604
 10
188.4913297266
 20
59.0237306664
 10
188.2616311715
 20
59.1274164088
 10
188.089393727
 20
59.2934105625
 10
187.9961365781
 20
59.4911901894
 10
187.9848414862
 20
59.7176505283
 10
188.0395506202
 20
59.9634367687
 10
188.1397244511
 20
60.2243475521
 10
188.2725201123
 20
60.4959027139
 10
188.4329660827
 20
60.7792141336
 10
188.6143667524
 20
61.0842654043
 10
188.8135143163
 20
61.4175181017
 10
189.027526769
 20
61.7820372422
 10
189.2529480432
 20
62.1843894816
 10
189.4821055536
 20
62.6303837092
 10
189.7029798416
 20
63.1270760282
 10
189.8977589368
 20
63.6831428928
 10
183.4446485857
 20
63.4152424434
 10
185.1375855967
 20
64.1510525157
 10
187.0621345424
 20
64.8973864703
 10
189.1188789647
 20
65.6452876387
 10
191.4551303851
 20
66.4926312923
 10
204.6885873176
 20
81.82135057
 10
195.5366875388
 20
67.8596124657
 10
203.6298493729
 20
67.4403015119
 10
200.11951384
 20
66.8906008046
 10
196.6970410038
 20
66.0667119583
  0
HATCH
  5
2FC
100
AcDbEntity
  8
0
100
AcDbHatch
 62
1
  6
CONTINUOUS
 10
0.0
 20
0.0
 30
0.0
210
0.0
220
0.0
230
1.0
  2
SOLID
 70
1
 71
1
 91
1
 92
1
 93
41
 72
1
 10
196.6970410038
 20
66.0667119583
 11
193.3367388148
 21
64.9631277462
 72
1
 10
193.3367388148
 20
64.9631277462
 11
192.937245357
 21
64.183599892
 72
1
 10
192.937245357
 20
64.183599892
 11
192.5446673271
 21
63.4723844976
 72
1
 10
192.5446673271
 20
63.4723844976
 11
192.163986611
 21
62.8266103094
 72
1
 10
192.163986611
 20
62.8266103094
 11
191.797918099
 21
62.2413437575
 72
1
 10
191.797918099
 20
62.2413437575
 11
191.4488954365
 21
61.7127092746
 72
1
 10
191.4488954365
 20
61.7127092746
 11
191.1181580396
 21
61.2361260262
 72
1
 10
191.1181580396
 20
61.2361260262
 11
190.805817795
 21
60.8064185683
 72
1
 10
190.805817795
 20
60.8064185683
 11
190.5111563424
 21
60.4189726213
 72
1
 10
190.5111563424
 20
60.4189726213
 11
190.226910185
 21
60.0738159266
 72
1
 10
190.226910185
 20
60.0738159266
 11
189.9412253117
 21
59.7702650426
 72
1
 10
189.9412253117
 20
59.7702650426
 11
189.6480465593
 21
59.5076676247
 72
1
 10
189.6480465593
 20
59.5076676247
 11
189.3444149944
 21
59.2839662855
 72
1
 10
189.3444149944
 20
59.2839662855
 11
189.0436420936
 21
59.1115137942
 72
1
 10
189.0436420936
 20
59.1115137942
 11
188.759467267
 21
59.0186867604
 72
1
 10
188.759467267
 20
59.0186867604
 11
188.4913297266
 21
59.0237306664
 72
1
 10
188.4913297266
 20
59.0237306664
 11
188.2616311715
 21
59.1274164088
 72
1
 10
188.2616311715
 20
59.1274164088
 11
188.089393727
 21
59.2934105625
 72
1
 10
188.089393727
 20
59.2934105625
 11
187.9961365781
 21
59.4911901894
 72
1
 10
187.9961365781
 20
59.4911901894
 11
187.9848414862
 21
59.7176505283
 72
1
 10
187.9848414862
 20
59.7176505283
 11
188.0395506202
 21
59.9634367687
 72
1
 10
188.0395506202
 20
59.9634367687
 11
188.1397244511
 21
60.2243475521
 72
1
 10
188.1397244511
 20
60.2243475521
 11
188.2725201123
 21
60.4959027139
 72
1
 10
188.2725201123
 20
60.4959027139
 11
188.4329660827
 21
60.7792141336
 72
1
 10
188.4329660827
 20
60.7792141336
 11
188.6143667524
 21
61.0842654043
 72
1
 10
188.6143667524
 20
61.0842654043
 11
188.8135143163
 21
61.4175181017
 72
1
 10
188.8135143163
 20
61.4175181017
 11
189.027526769
 21
61.7820372422
 72
1
 10
189.027526769
 20
61.7820372422
 11
189.2529480432
 21
62.1843894816
 72
1
 10
189.2529480432
 20
62.1843894816
 11
189.4821055536
 21
62.6303837092
 72
1
 10
189.4821055536
 20
62.6303837092
 11
189.7029798416
 21
63.1270760282
 72
1
 10
189.7029798416
 20
63.1270760282
 11
189.8977589368
 21
63.6831428928
 72
1
 10
189.8977589368
 20
63.6831428928
 11
183.4446485857
 21
63.4152424434
 72
1
 10
183.4446485857
 20
63.4152424434
 11
185.1375855967
 21
64.1510525157
 72
1
 10
185.1375855967
 20
64.1510525157
 11
187.0621345424
 21
64.8973864703
 72
1
 10
187.0621345424
 20
64.8973864703
 11
189.1188789647
 21
65.6452876387
 72
1
 10
189.1188789647
 20
65.6452876387
 11
191.4551303851
 21
66.4926312923
 72
1
 10
191.4551303851
 20
66.4926312923
 11
204.6885873176
 21
81.82135057
 72
1
 10
204.6885873176
 20
81.82135057
 11
195.5366875388
 21
67.8596124657
 72
1
 10
195.5366875388
 20
67.8596124657
 11
203.6298493729
 21
67.4403015119
 72
1
 10
203.6298493729
 20
67.4403015119
 11
200.11951384
 21
66.8906008046
 72
1
 10
200.11951384
 20
66.8906008046
 11
196.6970410038
 21
66.0667119583
 97
1
330
2FB
 75
0
 76
1
 98
1
 10
0.0
 20
0.0
  0
LWPOLYLINE
  5
2FD
100
AcDbEntity
  8
0
100
AcDbPolyline
 62
1
  6
CONTINUOUS
 90
6
 70
0
 10
274.2378236311
 20
68.5279574535
 10
272.2228531547
 20
66.4877847006
 10
238.6963131232
 20
66.3873794773
 10
250.5221045911
 20
67.4584830962
 10
262.3679447464
 20
68.1718976061
 10
274.2378236311
 20
68.5279574535
  0
HATCH
  5
2FE
100
AcDbEntity
  8
0
100
AcDbHatch
 62
1
  6
CONTINUOUS
 10
0.0
 20
0.0
 30
0.0
210
0.0
220
0.0
230
1.0
  2
SOLID
 70
1
 71
1
 91
1
 92
1
 93
5
 72
1
 10
274.2378236311
 20
68.5279574535
 11
272.2228531547
 21
66.4877847006
 72
1
 10
272.2228531547
 20
66.4877847006
 11
238.6963131232
 21
66.3873794773
 72
1
 10
238.6963131232
 20
66.3873794773
 11
250.5221045911
 21
67.4584830962
 72
1
 10
250.5221045911
 20
67.4584830962
 11
262.3679447464
 21
68.1718976061
 72
1
 10
262.3679447464
 20
68.1718976061
 11
274.2378236311
 21
68.5279574535
 97
1
330
2FD
 75
0
 76
1
 98
1
 10
0.0
 20
0.0
  0
LWPOLYLINE
  5
2FF
100
AcDbEntity
  8
0
100
AcDbPolyline
 62
1
  6
CONTINUOUS
 90
16
 70
0
 10
215.9042615216
 20
66.1035193405
 10
215.1174184339
 20
65.5684586458
 10
214.3533582388
 20
65.1408862373
 10
213.6108560625
 20
64.827252107
 10
212.9048671862
 20
64.6229316031
 10
212.2529442788
 20
64.510321709
 10
211.6424825915
 20
64.478549357
 10
211.0973322541
 20
64.5429148515
 10
210.6528730002
 20
64.711478404
 10
210.3201370284
 20
64.9840440178
 10
210.0855170424
 20
65.341265725
 10
209.9127139151
 20
65.7983975265
 10
209.8013624929
 20
66.3574261821
 10
213.7399203204
 20
66.6066069728
 10
214.1234166354
 20
66.5572908241
 10
215.9042615216
 20
66.1035193405
  0
HATCH
  5
300
100
AcDbEntity
  8
0
100
AcDbHatch
 62
1
  6
CONTINUOUS
 10
0.0
 20
0.0
 30
0.0
210
0.0
220
0.0
230
1.0
  2
SOLID
 70
1
 71
1
 91
1
 92
1
 93
15
 72
1
 10
215.9042615216
 20
66.1035193405
 11
215.1174184339
 21
65.5684586458
 72
1
 10
215.1174184339
 20
65.5684586458
 11
214.3533582388
 21
65.1408862373
 72
1
 10
214.3533582388
 20
65.1408862373
 11
213.6108560625
 21
64.827252107
 72
1
 10
213.6108560625
 20
64.827252107
 11
212.9048671862
 21
64.6229316031
 72
1
 10
212.9048671862
 20
64.6229316031
 11
212.2529442788
 21
64.510321709
 72
1
 10
212.2529442788
 20
64.510321709
 11
211.6424825915
 21
64.478549357
 72
1
 10
211.6424825915
 20
64.478549357
 11
211.0973322541
 21
64.5429148515
 72
1
 10
211.0973322541
 20
64.5429148515
 11
210.6528730002
 21
64.711478404
 72
1
 10
210.6528730002
 20
64.711478404
 11
210.3201370284
 21
64.9840440178
 72
1
 10
210.3201370284
 20
64.9840440178
 11
210.0855170424
 21
65.341265725
 72
1
 10
210.0855170424
 20
65.341265725
 11
209.9127139151
 21
65.7983975265
 72
1
 10
209.9127139151
 20
65.7983975265
 11
209.8013624929
 21
66.3574261821
 72
1
 10
209.8013624929
 20
66.3574261821
 11
213.7399203204
 21
66.6066069728
 72
1
 10
213.7399203204
 20
66.6066069728
 11
214.1234166354
 21
66.5572908241
 72
1
 10
214.1234166354
 20
66.5572908241
 11
215.9042615216
 21
66.1035193405
 97
1
330
2FF
 75
0
 76
1
 98
1
 10
0.0
 20
0.0
  0
LWPOLYLINE
  5
301
100
AcDbEntity
  8
0
100
AcDbPolyline
 62
1
  6
CONTINUOUS
 90
7
 70
0
 10
234.2980312055
 20
58.2083521945
 10
230.1830325696
 20
57.9144064113
 10
233.4162746323
 20
63.1784511494
 10
214.4385531231
 20
63.4223953927
 10
249.8378576924
 20
64.3509928817
 10
237.2168910234
 20
63.5559198621
 10
234.2980312055
 20
58.2083521945
  0
HATCH
  5
302
100
AcDbEntity
  8
0
100
AcDbHatch
 62
1
  6
CONTINUOUS
 10
0.0
 20
0.0
 30
0.0
210
0.0
220
0.0
230
1.0
  2
SOLID
 70
1
 71
1
 91
1
 92
1
 93
6
 72
1
 10
234.2980312055
 20
58.2083521945
 11
230.1830325696
 21
57.9144064113
 72
1
 10
230.1830325696
 20
57.9144064113
 11
233.4162746323
 21
63.1784511494
 72
1
 10
233.4162746323
 20
63.1784511494
 11
214.4385531231
 21
63.4223953927
 72
1
 10
214.4385531231
 20
63.4223953927
 11
249.8378576924
 21
64.3509928817
 72
1
 10
249.8378576924
 20
64.3509928817
 11
237.2168910234
 21
63.5559198621
 72
1
 10
237.2168910234
 20
63.5559198621
 11
234.2980312055
 21
58.2083521945
 97
1
330
301
 75
0
 76
1
 98
1
 10
0.0
 20
0.0
  0
LWPOLYLINE
  5
303
100
AcDbEntity
  8
0
100
AcDbPolyline
 62
1
  6
CONTINUOUS
 90
6
 70
0
 10
188.1000255597
 20
63.1406370838
 10
181.9218293397
 20
62.6527269418
 10
183.4446485857
 20
63.4152424434
 10
189.8977589368
 20
63.6831428928
 10
189.0023634948
 20
63.4872062499
 10
188.1000255597
 20
63.1406370838
  0
HATCH
  5
304
100
AcDbEntity
  8
0
100
AcDbHatch
 62
1
  6
CONTINUOUS
 10
0.0
 20
0.0
 30
0.0
210
0.0
220
0.0
230
1.0
  2
SOLID
 70
1
 71
1
 91
1
 92
1
 93
5
 72
1
 10
188.1000255597
 20
63.1406370838
 11
181.9218293397
 21
62.6527269418
 72
1
 10
181.9218293397
 20
62.6527269418
 11
183.4446485857
 21
63.4152424434
 72
1
 10
183.4446485857
 20
63.4152424434
 11
189.8977589368
 21
63.6831428928
 72
1
 10
189.8977589368
 20
63.6831428928
 11
189.0023634948
 21
63.4872062499
 72
1
 10
189.0023634948
 20
63.4872062499
 11
188.1000255597
 21
63.1406370838
 97
1
330
303
 75
0
 76
1
 98
1
 10
0.0
 20
0.0
  0
LWPOLYLINE
  5
305
100
AcDbEntity
  8
0
100
AcDbPolyline
 62
1
  6
CONTINUOUS
 90
8
 70
0
 10
186.2956849707
 20
62.2604138664
 10
185.471178434
 20
61.7827701574
 10
179.4237978361
 20
61.0964993024
 10
180.57254753
 20
61.8674492153
 10
181.9218293397
 20
62.6527269418
 10
188.1000255597
 20
63.1406370838
 10
187.183271121
 20
62.7223667915
 10
186.2956849707
 20
62.2604138664
  0
HATCH
  5
306
100
AcDbEntity
  8
0
100
AcDbHatch
 62
1
  6
CONTINUOUS
 10
0.0
 20
0.0
 30
0.0
210
0.0
220
0.0
230
1.0
  2
SOLID
 70
1
 71
1
 91
1
 92
1
 93
7
 72
1
 10
186.2956849707
 20
62.2604138664
 11
185.471178434
 21
61.7827701574
 72
1
 10
185.471178434
 20
61.7827701574
 11
179.4237978361
 21
61.0964993024
 72
1
 10
179.4237978361
 20
61.0964993024
 11
180.57254753
 21
61.8674492153
 72
1
 10
180.57254753
 20
61.8674492153
 11
181.9218293397
 21
62.6527269418
 72
1
 10
181.9218293397
 20
62.6527269418
 11
188.1000255597
 21
63.1406370838
 72
1
 10
188.1000255597
 20
63.1406370838
 11
187.183271121
 21
62.7223667915
 72
1
 10
187.183271121
 20
62.7223667915
 11
186.2956849707
 21
62.2604138664
 97
1
330
305
 75
0
 76
1
 98
1
 10
0.0
 20
0.0
  0
LWPOLYLINE
  5
307
100
AcDbEntity
  8
0
100
AcDbPolyline
 62
1
  6
CONTINUOUS
 90
6
 70
0
 10
203.7248425695
 20
60.3950535679
 10
204.2057860136
 20
61.7043603006
 10
214.4385531231
 20
63.4223953927
 10
224.5009077847
 20
62.7669538903
 10
214.6012183574
 20
61.7124387337
 10
203.7248425695
 20
60.3950535679
  0
HATCH
  5
308
100
AcDbEntity
  8
0
100
AcDbHatch
 62
1
  6
CONTINUOUS
 10
0.0
 20
0.0
 30
0.0
210
0.0
220
0.0
230
1.0
  2
SOLID
 70
1
 71
1
 91
1
 92
1
 93
5
 72
1
 10
203.7248425695
 20
60.3950535679
 11
204.2057860136
 21
61.7043603006
 72
1
 10
204.2057860136
 20
61.7043603006
 11
214.4385531231
 21
63.4223953927
 72
1
 10
214.4385531231
 20
63.4223953927
 11
224.5009077847
 21
62.7669538903
 72
1
 10
224.5009077847
 20
62.7669538903
 11
214.6012183574
 21
61.7124387337
 72
1
 10
214.6012183574
 20
61.7124387337
 11
203.7248425695
 21
60.3950535679
 97
1
330
307
 75
0
 76
1
 98
1
 10
0.0
 20
0.0
  0
SOLID
  5
309
100
AcDbEntity
  8
0
100
AcDbTrace
 62
1
  6
CONTINUOUS
 10
224.5009077847
 20
62.7669538903
 11
214.4385531231
 21
63.4223953927
 12
233.4162746323
 22
63.1784511494
 13
233.4162746323
 23
63.1784511494
  0
LWPOLYLINE
  5
30A
100
AcDbEntity
  8
0
100
AcDbPolyline
 62
1
  6
CONTINUOUS
 90
6
 70
0
 10
184.1006506606
 20
60.8876064587
 10
178.4070366728
 20
60.3209369569
 10
179.4237978361
 20
61.0964993024
 10
185.471178434
 20
61.7827701574
 10
184.740062459
 20
61.3209044214
 10
184.1006506606
 20
60.8876064587
  0
HATCH
  5
30B
100
AcDbEntity
  8
0
100
AcDbHatch
 62
1
  6
CONTINUOUS
 10
0.0
 20
0.0
 30
0.0
210
0.0
220
0.0
230
1.0
  2
SOLID
 70
1
 71
1
 91
1
 92
1
 93
5
 72
1
 10
184.1006506606
 20
60.8876064587
 11
178.4070366728
 21
60.3209369569
 72
1
 10
178.4070366728
 20
60.3209369569
 11
179.4237978361
 21
61.0964993024
 72
1
 10
179.4237978361
 20
61.0964993024
 11
185.471178434
 21
61.7827701574
 72
1
 10
185.471178434
 20
61.7827701574
 11
184.740062459
 21
61.3209044214
 72
1
 10
184.740062459
 20
61.3209044214
 11
184.1006506606
 21
60.8876064587
 97
1
330
30A
 75
0
 76
1
 98
1
 10
0.0
 20
0.0
  0
LWPOLYLINE
  5
30C
100
AcDbEntity
  8
0
100
AcDbPolyline
 62
1
  6
CONTINUOUS
 90
6
 70
0
 10
183.0461989603
 20
60.0698944453
 10
177.4997153319
 20
59.5418028973
 10
178.4070366728
 20
60.3209369569
 10
184.1006506606
 20
60.8876064587
 10
183.5383615702
 20
60.4767127684
 10
183.0461989603
 20
60.0698944453
  0
HATCH
  5
30D
100
AcDbEntity
  8
0
100
AcDbHatch
 62
1
  6
CONTINUOUS
 10
0.0
 20
0.0
 30
0.0
210
0.0
220
0.0
230
1.0
  2
SOLID
 70
1
 71
1
 91
1
 92
1
 93
5
 72
1
 10
183.0461989603
 20
60.0698944453
 11
177.4997153319
 21
59.5418028973
 72
1
 10
177.4997153319
 20
59.5418028973
 11
178.4070366728
 21
60.3209369569
 72
1
 10
178.4070366728
 20
60.3209369569
 11
184.1006506606
 21
60.8876064587
 72
1
 10
184.1006506606
 20
60.8876064587
 11
183.5383615702
 21
60.4767127684
 72
1
 10
183.5383615702
 20
60.4767127684
 11
183.0461989603
 21
60.0698944453
 97
1
330
30C
 75
0
 76
1
 98
1
 10
0.0
 20
0.0
  0
LWPOLYLINE
  5
30E
100
AcDbEntity
  8
0
100
AcDbPolyline
 62
1
  6
CONTINUOUS
 90
6
 70
0
 10
182.2644086196
 20
59.2378360016
 10
176.7329358738
 20
58.7541944567
 10
177.4997153319
 20
59.5418028973
 10
183.0461989603
 20
60.0698944453
 10
182.6214484041
 20
59.6568121464
 10
182.2644086196
 20
59.2378360016
  0
HATCH
  5
30F
100
AcDbEntity
  8
0
100
AcDbHatch
 62
1
  6
CONTINUOUS
 10
0.0
 20
0.0
 30
0.0
210
0.0
220
0.0
230
1.0
  2
SOLID
 70
1
 71
1
 91
1
 92
1
 93
5
 72
1
 10
182.2644086196
 20
59.2378360016
 11
176.7329358738
 21
58.7541944567
 72
1
 10
176.7329358738
 20
58.7541944567
 11
177.4997153319
 21
59.5418028973
 72
1
 10
177.4997153319
 20
59.5418028973
 11
183.0461989603
 21
60.0698944453
 72
1
 10
183.0461989603
 20
60.0698944453
 11
182.6214484041
 21
59.6568121464
 72
1
 10
182.6214484041
 20
59.6568121464
 11
182.2644086196
 21
59.2378360016
 97
1
330
30E
 75
0
 76
1
 98
1
 10
0.0
 20
0.0
  0
LWPOLYLINE
  5
310
100
AcDbEntity
  8
0
100
AcDbPolyline
 62
1
  6
CONTINUOUS
 90
6
 70
0
 10
181.8046130349
 20
58.4102902562
 10
176.1677245778
 20
57.9619644631
 10
176.7329358738
 20
58.7541944567
 10
182.2644086196
 20
59.2378360016
 10
181.98187537
 20
58.8218697982
 10
181.8046130349
 20
58.4102902562
  0
HATCH
  5
311
100
AcDbEntity
  8
0
100
AcDbHatch
 62
1
  6
CONTINUOUS
 10
0.0
 20
0.0
 30
0.0
210
0.0
220
0.0
230
1.0
  2
SOLID
 70
1
 71
1
 91
1
 92
1
 93
5
 72
1
 10
181.8046130349
 20
58.4102902562
 11
176.1677245778
 21
57.9619644631
 72
1
 10
176.1677245778
 20
57.9619644631
 11
176.7329358738
 21
58.7541944567
 72
1
 10
176.7329358738
 20
58.7541944567
 11
182.2644086196
 21
59.2378360016
 72
1
 10
182.2644086196
 20
59.2378360016
 11
181.98187537
 21
58.8218697982
 72
1
 10
181.98187537
 20
58.8218697982
 11
181.8046130349
 21
58.4102902562
 97
1
330
310
 75
0
 76
1
 98
1
 10
0.0
 20
0.0
  0
LWPOLYLINE
  5
312
100
AcDbEntity
  8
0
100
AcDbPolyline
 62
1
  6
CONTINUOUS
 90
8
 70
0
 10
181.8803745441
 20
57.5496379705
 10
182.12838602
 20
57.1627530797
 10
175.727669513
 20
56.3870784546
 10
175.8315762554
 20
57.17052525
 10
176.1677245778
 20
57.9619644631
 10
181.8046130349
 20
58.4102902562
 10
181.7630358411
 20
57.9835585123
 10
181.8803745441
 20
57.5496379705
  0
HATCH
  5
313
100
AcDbEntity
  8
0
100
AcDbHatch
 62
1
  6
CONTINUOUS
 10
0.0
 20
0.0
 30
0.0
210
0.0
220
0.0
230
1.0
  2
SOLID
 70
1
 71
1
 91
1
 92
1
 93
7
 72
1
 10
181.8803745441
 20
57.5496379705
 11
182.12838602
 21
57.1627530797
 72
1
 10
182.12838602
 20
57.1627530797
 11
175.727669513
 21
56.3870784546
 72
1
 10
175.727669513
 20
56.3870784546
 11
175.8315762554
 21
57.17052525
 72
1
 10
175.8315762554
 20
57.17052525
 11
176.1677245778
 21
57.9619644631
 72
1
 10
176.1677245778
 20
57.9619644631
 11
181.8046130349
 21
58.4102902562
 72
1
 10
181.8046130349
 20
58.4102902562
 11
181.7630358411
 21
57.9835585123
 72
1
 10
181.7630358411
 20
57.9835585123
 11
181.8803745441
 21
57.5496379705
 97
1
330
312
 75
0
 76
1
 98
1
 10
0.0
 20
0.0
  0
SOLID
  5
314
100
AcDbEntity
  8
0
100
AcDbTrace
 62
1
  6
CONTINUOUS
 10
175.727669513
 20
56.3870784546
 11
182.12838602
 21
57.1627530797
 12
182.4730134008
 22
56.8800287253
 13
182.4730134008
 23
56.8800287253
  0
LWPOLYLINE
  5
315
100
AcDbEntity
  8
0
100
AcDbPolyline
 62
1
  6
CONTINUOUS
 90
15
 70
0
 10
189.6959770718
 20
55.675874993
 10
187.7641501458
 20
54.9843329359
 10
185.9841428451
 20
54.4842690834
 10
184.3444479205
 20
54.1480632978
 10
182.8212720146
 20
53.9405402808
 10
181.4289970308
 20
53.8337865958
 10
180.1280963459
 20
53.8001676995
 10
178.9253086672
 20
53.8397328827
 10
177.8785781647
 20
54.0096334143
 10
176.995002564
 20
54.3593527812
 10
176.3187290574
 20
54.8947540159
 10
175.8500746074
 20
55.5904657174
 10
175.727669513
 20
56.3870784546
 10
191.7503321438
 20
56.5652695409
 10
189.6959770718
 20
55.675874993
  0
HATCH
  5
316
100
AcDbEntity
  8
0
100
AcDbHatch
 62
1
  6
CONTINUOUS
 10
0.0
 20
0.0
 30
0.0
210
0.0
220
0.0
230
1.0
  2
SOLID
 70
1
 71
1
 91
1
 92
1
 93
14
 72
1
 10
189.6959770718
 20
55.675874993
 11
187.7641501458
 21
54.9843329359
 72
1
 10
187.7641501458
 20
54.9843329359
 11
185.9841428451
 21
54.4842690834
 72
1
 10
185.9841428451
 20
54.4842690834
 11
184.3444479205
 21
54.1480632978
 72
1
 10
184.3444479205
 20
54.1480632978
 11
182.8212720146
 21
53.9405402808
 72
1
 10
182.8212720146
 20
53.9405402808
 11
181.4289970308
 21
53.8337865958
 72
1
 10
181.4289970308
 20
53.8337865958
 11
180.1280963459
 21
53.8001676995
 72
1
 10
180.1280963459
 20
53.8001676995
 11
178.9253086672
 21
53.8397328827
 72
1
 10
178.9253086672
 20
53.8397328827
 11
177.8785781647
 21
54.0096334143
 72
1
 10
177.8785781647
 20
54.0096334143
 11
176.995002564
 21
54.3593527812
 72
1
 10
176.995002564
 20
54.3593527812
 11
176.3187290574
 21
54.8947540159
 72
1
 10
176.3187290574
 20
54.8947540159
 11
175.8500746074
 21
55.5904657174
 72
1
 10
175.8500746074
 20
55.5904657174
 11
175.727669513
 21
56.3870784546
 72
1
 10
175.727669513
 20
56.3870784546
 11
191.7503321438
 21
56.5652695409
 72
1
 10
191.7503321438
 20
56.5652695409
 11
189.6959770718
 21
55.675874993
 97
1
330
315
 75
0
 76
1
 98
1
 10
0.0
 20
0.0
  0
POINT
  5
317
100
AcDbEntity
  8
0
100
AcDbPoint
 62
7
  6
CONTINUOUS
 10
40.0825585089
 20
20.0258790952
  0
POINT
  5
318
100
AcDbEntity
  8
0
100
AcDbPoint
 62
7
  6
CONTINUOUS
 10
40.1550444951
 20
19.989108039
  0
TEXT
  5
319
100
AcDbEntity
  8
0
100
AcDbText
 62
2
  6
CONTINUOUS
 10
69.2609082854
 20
575.9918041964
  7
TEXTSTYLE_2
 40
6.0
  1
1
 41
0.25
 72
1
 11
70.0109082854
 21
575.9918041964
100
AcDbText
  0
TEXT
  5
31A
100
AcDbEntity
  8
0
100
AcDbText
 62
2
  6
CONTINUOUS
 10
168.2917638259
 20
575.9470020834
  7
TEXTSTYLE_2
 40
6.0
  1
2
 41
0.55
 72
1
 11
169.9417638259
 21
575.9470020834
100
AcDbText
  0
TEXT
  5
31B
100
AcDbEntity
  8
0
100
AcDbText
 62
2
  6
CONTINUOUS
 10
268.3171186169
 20
576.0083984296
  7
TEXTSTYLE_2
 40
6.0
  1
3
 41
0.55
 72
1
 11
269.9671186169
 21
576.0083984296
100
AcDbText
  0
TEXT
  5
31C
100
AcDbEntity
  8
0
100
AcDbText
 62
2
  6
CONTINUOUS
 10
368.2013966559
 20
575.9782022678
  7
TEXTSTYLE_2
 40
6.0
  1
4
 41
0.6
 72
1
 11
370.0013966559
 21
575.9782022678
100
AcDbText
  0
TEXT
  5
31D
100
AcDbEntity
  8
0
100
AcDbText
 62
2
  6
CONTINUOUS
 10
69.2272982533
 20
11.9420041218
  7
TEXTSTYLE_2
 40
6.0
  1
1
 41
0.25
 72
1
 11
69.9772982533
 21
11.9420041218
100
AcDbText
  0
TEXT
  5
31E
100
AcDbEntity
  8
0
100
AcDbText
 62
2
  6
CONTINUOUS
 10
168.3014615404
 20
12.0241112791
  7
TEXTSTYLE_2
 40
6.0
  1
2
 41
0.55
 72
1
 11
169.9514615404
 21
12.0241112791
100
AcDbText
  0
TEXT
  5
31F
100
AcDbEntity
  8
0
100
AcDbText
 62
2
  6
CONTINUOUS
 10
268.4092915323
 20
11.9170440813
  7
TEXTSTYLE_2
 40
6.0
  1
3
 41
0.55
 72
1
 11
270.0592915323
 21
11.9170440813
100
AcDbText
  0
TEXT
  5
320
100
AcDbEntity
  8
0
100
AcDbText
 62
2
  6
CONTINUOUS
 10
368.2600543263
 20
11.8635104823
  7
TEXTSTYLE_2
 40
6.0
  1
4
 41
0.6
 72
1
 11
370.0600543263
 21
11.8635104823
100
AcDbText
  0
TEXT
  5
321
100
AcDbEntity
  8
0
100
AcDbText
 62
2
  6
CONTINUOUS
 10
33.1866805618
 20
543.8247434774
  7
TEXTSTYLE_2
 40
6.0
  1
A
 41
0.6
 72
1
 11
34.9866805618
 21
543.8247434774
100
AcDbText
  0
TEXT
  5
322
100
AcDbEntity
  8
0
100
AcDbText
 62
2
  6
CONTINUOUS
 10
33.5855281506
 20
443.9197556377
  7
TEXTSTYLE_2
 40
6.0
  1
B
 41
0.55
 72
1
 11
35.2355281506
 21
443.9197556377
100
AcDbText
  0
TEXT
  5
323
100
AcDbEntity
  8
0
100
AcDbText
 62
2
  6
CONTINUOUS
 10
32.801646425
 20
344.1389301979
  7
TEXTSTYLE_2
 40
6.0
  1
C
 41
0.6
 72
1
 11
34.601646425
 21
344.1389301979
100
AcDbText
  0
TEXT
  5
324
100
AcDbEntity
  8
0
100
AcDbText
 62
2
  6
CONTINUOUS
 10
33.1283895825
 20
243.9921524216
  7
TEXTSTYLE_2
 40
6.0
  1
D
 41
0.6
 72
1
 11
34.9283895825
 21
243.9921524216
100
AcDbText
  0
TEXT
  5
325
100
AcDbEntity
  8
0
100
AcDbText
 62
2
  6
CONTINUOUS
 10
33.1150180038
 20
144.0087462241
  7
TEXTSTYLE_2
 40
6.0
  1
E
 41
0.55
 72
1
 11
34.7650180038
 21
144.0087462241
100
AcDbText
  0
TEXT
  5
326
100
AcDbEntity
  8
0
100
AcDbText
 62
2
  6
CONTINUOUS
 10
33.4417611613
 20
43.8619684478
  7
TEXTSTYLE_2
 40
6.0
  1
F
 41
0.55
 72
1
 11
35.0917611613
 21
43.8619684478
100
AcDbText
  0
TEXT
  5
327
100
AcDbEntity
  8
0
100
AcDbText
 62
2
  6
CONTINUOUS
 10
403.4261543723
 20
544.0839921753
  7
TEXTSTYLE_2
 40
6.0
  1
A
 41
0.6
 72
1
 11
405.2261543723
 21
544.0839921753
100
AcDbText
  0
TEXT
  5
328
100
AcDbEntity
  8
0
100
AcDbText
 62
2
  6
CONTINUOUS
 10
403.3147598463
 20
444.1005859778
  7
TEXTSTYLE_2
 40
6.0
  1
B
 41
0.55
 72
1
 11
404.9647598463
 21
444.1005859778
100
AcDbText
  0
TEXT
  5
329
100
AcDbEntity
  8
0
100
AcDbText
 62
2
  6
CONTINUOUS
 10
403.2549409578
 20
343.9093711322
  7
TEXTSTYLE_2
 40
6.0
  1
C
 41
0.6
 72
1
 11
405.0549409578
 21
343.9093711322
100
AcDbText
  0
TEXT
  5
32A
100
AcDbEntity
  8
0
100
AcDbText
 62
2
  6
CONTINUOUS
 10
403.091569379
 20
244.0893365134
  7
TEXTSTYLE_2
 40
6.0
  1
D
 41
0.6
 72
1
 11
404.891569379
 21
244.0893365134
100
AcDbText
  0
TEXT
  5
32B
100
AcDbEntity
  8
0
100
AcDbText
 62
2
  6
CONTINUOUS
 10
403.4049409578
 20
143.9425587371
  7
TEXTSTYLE_2
 40
6.0
  1
E
 41
0.55
 72
1
 11
405.0549409578
 21
143.9425587371
100
AcDbText
  0
TEXT
  5
32C
100
AcDbEntity
  8
0
100
AcDbText
 62
2
  6
CONTINUOUS
 10
404.1371383936
 20
44.7339421564
  7
TEXTSTYLE_2
 40
6.0
  1
F
 41
0.55
 72
1
 11
405.7871383936
 21
44.7339421564
100
AcDbText
  0
INSERT
  5
32D
100
AcDbEntity
  8
0
100
AcDbBlockReference
 62
2
  6
CONTINUOUS
  2
SYMBOL_BL0
 10
220.0
 20
72.000897183
  0
ACAD_TABLE
  5
32E
100
AcDbEntity
  8
0
 62
2
  6
CONTINUOUS
100
AcDbBlockReference
  2
*T1
 10
39.99879997
 20
124.0000346243
 30
0.0
100
AcDbTable
342
       603
343
214
 11
1.0
 21
0.0
 31
0.0
 90
22
 91
6
 92
8
 93
0
 94
0
 95
0
 96
0
141
20.0
141
16.0
141
16.0
141
16.0
141
16.0
141
20.0
142
40.0
142
40.0
142
50.0
142
110.0
142
30.0
142
30.0
142
30.0
142
30.0
171
1
172
0
173
0
174
0
175
3
176
1
 91
33
178
0
145
0.0
301
CELL_VALUE
 90
4
  1
                                                   ISO 1302 Series 2\P \P                                                   ISO 2768-m K
304
ACVALUE_END
170
4
140
4.0
171
1
172
0
173
1
174
0
175
1
176
1
 91
1
178
0
145
0.0
170
1
171
1
172
0
173
1
174
0
175
1
176
1
 91
1
178
0
145
0.0
170
1
171
1
172
0
173
0
174
0
175
1
176
1
 91
33
178
0
145
0.0
301
CELL_VALUE
 90
4
  1
SINGLE PART DRAWING
304
ACVALUE_END
170
7
140
4.0
171
1
172
0
173
0
174
0
175
2
176
1
 91
33
178
0
145
0.0
301
CELL_VALUE
 90
4
  1
X5CrNi18-10
304
ACVALUE_END
170
7
140
4.0
171
1
172
0
173
1
174
0
175
1
176
1
 91
1
178
0
145
0.0
170
1
171
1
172
0
173
0
174
0
175
1
176
1
 91
33
178
0
145
0.0
301
CELL_VALUE
 90
4
  1
1.4301
304
ACVALUE_END
170
7
140
4.0
171
1
172
0
173
0
174
0
175
1
176
1
 91
33
178
0
145
0.0
301
CELL_VALUE
 90
4
  1
0.493
304
ACVALUE_END
170
7
140
4.0
171
1
172
0
173
0
174
0
175
1
176
1
 91
1
178
0
145
0.0
170
1
171
1
172
0
173
0
174
0
175
1
176
1
 91
1
178
0
145
0.0
170
1
171
1
172
0
173
0
174
0
175
1
176
1
 91
1
178
0
145
0.0
170
1
171
1
172
0
173
0
174
0
175
1
176
4
 91
1
178
0
145
0.0
170
1
171
1
172
0
173
0
174
0
175
4
176
3
 91
33
178
0
145
0.0
301
CELL_VALUE
 90
4
  1
 \P \PTORQUE ARM OGD\P \PDESIGN V2A
304
ACVALUE_END
170
1
140
6.0
171
1
172
0
173
1
174
0
175
1
176
1
 91
1
178
0
145
0.0
170
1
171
1
172
0
173
1
174
0
175
1
176
1
 91
1
178
0
145
0.0
170
1
171
1
172
0
173
1
174
0
175
1
176
1
 91
1
178
0
145
0.0
170
1
171
1
172
0
173
0
174
0
175
1
176
1
 91
1
178
0
145
0.0
170
1
171
1
172
0
173
0
174
0
175
1
176
1
 91
33
178
0
145
0.0
301
CELL_VALUE
 90
4
  1
2011-09-01
304
ACVALUE_END
170
5
140
4.0
171
1
172
0
173
0
174
0
175
1
176
1
 91
33
178
0
145
0.0
301
CELL_VALUE
 90
4
  1
STOESSER
304
ACVALUE_END
170
5
140
4.0
171
1
172
0
173
1
174
0
175
1
176
1
 91
1
178
0
145
0.0
170
1
171
1
172
0
173
1
174
0
175
1
176
1
 91
1
178
0
145
0.0
170
1
171
1
172
0
173
1
174
0
175
1
176
1
 91
1
178
0
145
0.0
170
1
171
1
172
0
173
1
174
0
175
1
176
1
 91
1
178
0
145
0.0
170
1
171
1
172
0
173
1
174
0
175
1
176
1
 91
1
178
0
145
0.0
170
1
171
1
172
0
173
0
174
0
175
1
176
1
 91
1
178
0
145
0.0
170
1
171
1
172
0
173
0
174
0
175
1
176
1
 91
33
178
0
145
0.0
301
CELL_VALUE
 90
4
  1
2012-02-08
304
ACVALUE_END
170
5
140
4.0
171
1
172
0
173
0
174
0
175
1
176
1
 91
33
178
0
145
0.0
301
CELL_VALUE
 90
4
  1
SIERING
304
ACVALUE_END
170
5
140
4.0
171
1
172
0
173
1
174
0
175
1
176
1
 91
1
178
0
145
0.0
170
1
171
1
172
0
173
1
174
0
175
1
176
1
 91
1
178
0
145
0.0
170
1
171
1
172
0
173
1
174
0
175
1
176
1
 91
1
178
0
145
0.0
170
1
171
1
172
0
173
1
174
0
175
1
176
1
 91
1
178
0
145
0.0
170
1
171
1
172
0
173
1
174
0
175
1
176
1
 91
1
178
0
145
0.0
170
1
171
1
172
0
173
0
174
0
175
1
176
1
 91
1
178
0
145
0.0
170
1
171
1
172
0
173
0
174
0
175
1
176
1
 91
33
178
0
145
0.0
301
CELL_VALUE
 90
4
  1
2012-02-08
304
ACVALUE_END
170
5
140
4.0
171
1
172
0
173
0
174
0
175
1
176
1
 91
33
178
0
145
0.0
301
CELL_VALUE
 90
4
  1
FOSSELMANN
304
ACVALUE_END
170
5
140
4.0
171
1
172
0
173
1
174
0
175
1
176
1
 91
1
178
0
145
0.0
170
1
171
1
172
0
173
0
174
0
175
3
176
1
 91
33
178
0
145
0.0
301
CELL_VALUE
 90
4
  1
178G5006
304
ACVALUE_END
170
8
140
5.0
171
1
172
0
173
1
174
0
175
1
176
1
 91
1
178
0
145
0.0
170
1
171
1
172
0
173
1
174
0
175
1
176
1
 91
1
178
0
145
0.0
170
1
171
1
172
0
173
0
174
0
175
1
176
1
 91
1
178
0
145
0.0
170
8
171
1
172
0
173
0
174
0
175
4
176
1
 91
1
178
0
145
0.0
170
1
171
1
172
0
173
1
174
0
175
1
176
1
 91
1
178
0
145
0.0
170
1
171
1
172
0
173
1
174
0
175
1
176
1
 91
1
178
0
145
0.0
170
1
171
1
172
0
173
1
174
0
175
1
176
1
 91
1
178
0
145
0.0
170
1
171
1
172
0
173
0
174
0
175
1
176
1
 91
33
178
0
145
0.0
301
CELL_VALUE
 90
4
  1
 \PA4
304
ACVALUE_END
170
2
140
4.0
171
1
172
0
173
0
174
0
175
2
176
1
 91
33
178
0
145
0.0
301
CELL_VALUE
 90
4
  1
 \P1:2
304
ACVALUE_END
170
2
140
4.0
171
1
172
0
173
1
174
0
175
1
176
1
 91
1
178
0
145
0.0
170
1
171
1
172
0
173
0
174
0
175
1
176
1
 91
33
178
0
145
0.0
301
CELL_VALUE
 90
4
  1
 \P1/1
304
ACVALUE_END
170
2
140
4.0
  0
LWPOLYLINE
  5
32F
100
AcDbEntity
  8
0
100
AcDbPolyline
 62
2
  6
CONTINUOUS
 90
2
 70
0
 43
3.9999998779
 10
20.0
 20
0.0
 10
0.0
 20
0.0
  0
LWPOLYLINE
  5
330
100
AcDbEntity
  8
0
100
AcDbPolyline
 62
2
  6
CONTINUOUS
 90
2
 70
0
 43
3.9999998779
 10
400.0
 20
0.0
 10
420.0
 20
0.0
  0
LWPOLYLINE
  5
331
100
AcDbEntity
  8
0
100
AcDbPolyline
 62
2
  6
CONTINUOUS
 90
2
 70
0
 43
0.4999999847
 10
30.0
 20
10.0
 10
410.0
 20
10.0
  0
LWPOLYLINE
  5
332
100
AcDbEntity
  8
0
100
AcDbPolyline
 62
7
  6
CONTINUOUS
 90
2
 70
0
 43
0.9999999695
 10
40.0
 20
20.0
 10
400.0
 20
20.0
  0
LWPOLYLINE
  5
333
100
AcDbEntity
  8
0
100
AcDbPolyline
 62
1
  6
CONTINUOUS
 90
2
 70
0
 43
0.0020194132
 10
181.4289970308
 20
53.8337865958
 10
180.1280963459
 20
53.8001676995
  0
LWPOLYLINE
  5
334
100
AcDbEntity
  8
0
100
AcDbPolyline
 62
1
  6
CONTINUOUS
 90
2
 70
0
 43
0.0020194132
 10
180.1280963459
 20
53.8001676995
 10
178.9253086672
 20
53.8397328827
  0
LWPOLYLINE
  5
335
100
AcDbEntity
  8
0
100
AcDbPolyline
 62
1
  6
CONTINUOUS
 90
2
 70
0
 43
0.0020194132
 10
178.9253086672
 20
53.8397328827
 10
177.8785781647
 20
54.0096334143
  0
LWPOLYLINE
  5
336
100
AcDbEntity
  8
0
100
AcDbPolyline
 62
1
  6
CONTINUOUS
 90
2
 70
0
 43
0.0020194132
 10
187.7641501458
 20
54.9843329359
 10
185.9841428451
 20
54.4842690834
  0
LWPOLYLINE
  5
337
100
AcDbEntity
  8
0
100
AcDbPolyline
 62
1
  6
CONTINUOUS
 90
2
 70
0
 43
0.0020194132
 10
215.3955703166
 20
71.3219584842
 10
210.7650823691
 20
70.0290276624
  0
LWPOLYLINE
  5
338
100
AcDbEntity
  8
0
100
AcDbPolyline
 62
1
  6
CONTINUOUS
 90
2
 70
0
 43
0.0020194132
 10
271.1693430725
 20
84.9634057885
 10
271.6408043345
 20
85.090959317
  0
LWPOLYLINE
  5
339
100
AcDbEntity
  8
0
100
AcDbPolyline
 62
1
  6
CONTINUOUS
 90
2
 70
0
 43
0.0020194132
 10
232.0389783648
 20
67.0992998666
 10
231.5415229179
 20
66.9685052336
  0
LWPOLYLINE
  5
33A
100
AcDbEntity
  8
0
100
AcDbPolyline
 62
1
  6
CONTINUOUS
 90
2
 70
0
 43
0.0020194132
 10
265.4767641157
 20
72.3179042535
 10
265.9942416894
 20
72.4530793917
  0
LWPOLYLINE
  5
33B
100
AcDbEntity
  8
0
100
AcDbPolyline
 62
1
  6
CONTINUOUS
 90
2
 70
0
 43
0.0020194132
 10
257.2471778001
 20
71.9656437462
 10
257.7646599681
 20
72.1008266794
  0
LWPOLYLINE
  5
33C
100
AcDbEntity
  8
0
100
AcDbPolyline
 62
1
  6
CONTINUOUS
 90
2
 70
0
 43
0.0020194132
 10
214.1234166354
 20
66.5572908241
 10
214.4996940111
 20
66.6545668178
  0
LWPOLYLINE
  5
33D
100
AcDbEntity
  8
0
100
AcDbPolyline
 62
1
  6
CONTINUOUS
 90
2
 70
0
 43
0.0020194132
 10
186.6427708208
 20
57.0222303117
 10
190.0262294909
 20
57.87713151
  0
LWPOLYLINE
  5
33E
100
AcDbEntity
  8
0
100
AcDbPolyline
 62
1
  6
CONTINUOUS
 90
2
 70
0
 43
0.0020194132
 10
257.3080320008
 20
73.6559613553
 10
254.9512167062
 20
73.0725428069
  0
LWPOLYLINE
  5
33F
100
AcDbEntity
  8
0
100
AcDbPolyline
 62
1
  6
CONTINUOUS
 90
2
 70
0
 43
0.0020194132
 10
247.9011463091
 20
70.5267570216
 10
248.38722586
 20
70.6455458276
  0
LWPOLYLINE
  5
340
100
AcDbEntity
  8
0
100
AcDbPolyline
 62
1
  6
CONTINUOUS
 90
2
 70
0
 43
0.0020194132
 10
200.11951384
 20
66.8906008046
 10
196.6970410038
 20
66.0667119583
  0
LWPOLYLINE
  5
341
100
AcDbEntity
  8
0
100
AcDbPolyline
 62
1
  6
CONTINUOUS
 90
2
 70
0
 43
0.0020194132
 10
236.1638795897
 20
73.8729710097
 10
232.197087353
 20
72.9406842454
  0
LWPOLYLINE
  5
342
100
AcDbEntity
  8
0
100
AcDbPolyline
 62
1
  6
CONTINUOUS
 90
2
 70
0
 43
0.0020194132
 10
189.8977589368
 20
63.6831428928
 10
189.0023634948
 20
63.4872062499
  0
LWPOLYLINE
  5
343
100
AcDbEntity
  8
0
100
AcDbPolyline
 62
1
  6
CONTINUOUS
 90
2
 70
0
 43
0.0020194132
 10
247.4638013422
 20
68.6807462916
 10
246.5996244879
 20
68.4929065566
  0
LWPOLYLINE
  5
344
100
AcDbEntity
  8
0
100
AcDbPolyline
 62
1
  6
CONTINUOUS
 90
2
 70
0
 43
0.0020194132
 10
218.869626443
 20
65.5604473342
 10
218.4972291279
 20
65.4822943024
  0
LWPOLYLINE
  5
345
100
AcDbEntity
  8
0
100
AcDbPolyline
 62
1
  6
CONTINUOUS
 90
2
 70
0
 43
0.0020194132
 10
263.202104778
 20
84.4638193542
 10
263.8047130883
 20
84.5900389436
  0
LWPOLYLINE
  5
346
100
AcDbEntity
  8
0
100
AcDbPolyline
 62
1
  6
CONTINUOUS
 90
2
 70
0
 43
0.0020194132
 10
273.0448830315
 20
83.0828642019
 10
269.1530315401
 20
82.2780891452
  0
LWPOLYLINE
  5
347
100
AcDbEntity
  8
0
100
AcDbPolyline
 62
1
  6
CONTINUOUS
 90
2
 70
0
 43
0.0020194132
 10
256.7052783566
 20
72.0129799523
 10
254.4805013418
 20
71.5559898301
  0
LWPOLYLINE
  5
348
100
AcDbEntity
  8
0
100
AcDbPolyline
 62
1
  6
CONTINUOUS
 90
2
 70
0
 43
0.0020194132
 10
185.9841428451
 20
54.4842690834
 10
184.3444479205
 20
54.1480632978
  0
LWPOLYLINE
  5
349
100
AcDbEntity
  8
0
100
AcDbPolyline
 62
1
  6
CONTINUOUS
 90
2
 70
0
 43
0.0020194132
 10
257.9719610245
 20
69.3947442246
 10
257.0880948212
 20
69.2154347749
  0
LWPOLYLINE
  5
34A
100
AcDbEntity
  8
0
100
AcDbPolyline
 62
1
  6
CONTINUOUS
 90
2
 70
0
 43
0.0020194132
 10
233.6561001422
 20
69.6835464547
 10
234.1628598364
 20
69.7837819979
  0
LWPOLYLINE
  5
34B
100
AcDbEntity
  8
0
100
AcDbPolyline
 62
1
  6
CONTINUOUS
 90
2
 70
0
 43
0.0020194132
 10
243.8850741381
 20
76.4158661321
 10
237.6706935547
 20
75.2115688848
  0
LWPOLYLINE
  5
34C
100
AcDbEntity
  8
0
100
AcDbPolyline
 62
1
  6
CONTINUOUS
 90
2
 70
0
 43
0.0020194132
 10
195.5366875388
 20
67.8596124657
 10
198.7146199419
 20
68.4442766695
  0
LWPOLYLINE
  5
34D
100
AcDbEntity
  8
0
100
AcDbPolyline
 62
1
  6
CONTINUOUS
 90
2
 70
0
 43
0.0020194132
 10
223.6906191789
 20
68.5940326531
 10
220.7659434513
 20
68.0588881588
  0
LWPOLYLINE
  5
34E
100
AcDbEntity
  8
0
100
AcDbPolyline
 62
1
  6
CONTINUOUS
 90
2
 70
0
 43
0.0020194132
 10
266.1559606712
 20
69.9326591482
 10
265.4666936521
 20
69.811134564
  0
LWPOLYLINE
  5
34F
100
AcDbEntity
  8
0
100
AcDbPolyline
 62
1
  6
CONTINUOUS
 90
2
 70
0
 43
0.0020194132
 10
264.9426285351
 20
82.720033746
 10
261.0216528752
 20
82.0282192564
  0
LWPOLYLINE
  5
350
100
AcDbEntity
  8
0
100
AcDbPolyline
 62
1
  6
CONTINUOUS
 90
2
 70
0
 43
0.0020194132
 10
212.9048671862
 20
64.6229316031
 10
212.2529442788
 20
64.510321709
  0
LWPOLYLINE
  5
351
100
AcDbEntity
  8
0
100
AcDbPolyline
 62
1
  6
CONTINUOUS
 90
2
 70
0
 43
0.0020194132
 10
267.4315009462
 20
75.3184819734
 10
264.475173905
 20
74.808457485
  0
LWPOLYLINE
  5
352
100
AcDbEntity
  8
0
100
AcDbPolyline
 62
1
  6
CONTINUOUS
 90
2
 70
0
 43
0.0020194132
 10
204.2057860136
 20
61.7043603006
 10
214.4385531231
 20
63.4223953927
  0
LWPOLYLINE
  5
353
100
AcDbEntity
  8
0
100
AcDbPolyline
 62
1
  6
CONTINUOUS
 90
2
 70
0
 43
0.0020194132
 10
247.2898855451
 20
81.93346839
 10
243.980578059
 20
81.3983616407
  0
LWPOLYLINE
  5
354
100
AcDbEntity
  8
0
100
AcDbPolyline
 62
1
  6
CONTINUOUS
 90
2
 70
0
 43
0.0020194132
 10
198.7146199419
 20
68.4442766695
 10
201.9045015479
 20
68.9594022003
  0
LWPOLYLINE
  5
355
100
AcDbEntity
  8
0
100
AcDbPolyline
 62
1
  6
CONTINUOUS
 90
2
 70
0
 43
0.0020194132
 10
259.2019019319
 20
74.9662812385
 10
256.2308852034
 20
74.4893935338
  0
LWPOLYLINE
  5
356
100
AcDbEntity
  8
0
100
AcDbPolyline
 62
1
  6
CONTINUOUS
 90
2
 70
0
 43
0.0020194132
 10
233.6561001422
 20
69.6835464547
 10
230.032377951
 20
69.113003657
  0
LWPOLYLINE
  5
357
100
AcDbEntity
  8
0
100
AcDbPolyline
 62
1
  6
CONTINUOUS
 90
2
 70
0
 43
0.0020194132
 10
203.6298493729
 20
67.4403015119
 10
200.11951384
 20
66.8906008046
  0
LWPOLYLINE
  5
358
100
AcDbEntity
  8
0
100
AcDbPolyline
 62
1
  6
CONTINUOUS
 90
2
 70
0
 43
0.0020194132
 10
257.2471778001
 20
71.9656437462
 10
254.4805013418
 20
71.5559898301
  0
LWPOLYLINE
  5
359
100
AcDbEntity
  8
0
100
AcDbPolyline
 62
1
  6
CONTINUOUS
 90
2
 70
0
 43
0.0020194132
 10
220.9413900688
 20
75.1015512545
 10
224.4151038533
 20
75.6093125059
  0
LWPOLYLINE
  5
35A
100
AcDbEntity
  8
0
100
AcDbPolyline
 62
1
  6
CONTINUOUS
 90
2
 70
0
 43
0.0020194132
 10
216.6269200043
 20
74.9196956253
 10
217.7074248289
 20
75.0722484449
  0
LWPOLYLINE
  5
35B
100
AcDbEntity
  8
0
100
AcDbPolyline
 62
1
  6
CONTINUOUS
 90
2
 70
0
 43
0.0020194132
 10
255.9541374281
 20
76.4926784276
 10
251.9012572481
 20
75.9261927356
  0
LWPOLYLINE
  5
35C
100
AcDbEntity
  8
0
100
AcDbPolyline
 62
1
  6
CONTINUOUS
 90
2
 70
0
 43
0.0020194132
 10
201.9045015479
 20
68.9594022003
 10
205.1067674003
 20
69.4050289882
  0
LWPOLYLINE
  5
35D
100
AcDbEntity
  8
0
100
AcDbPolyline
 62
1
  6
CONTINUOUS
 90
2
 70
0
 43
0.0020194132
 10
184.3444479205
 20
54.1480632978
 10
182.8212720146
 20
53.9405402808
  0
LWPOLYLINE
  5
35E
100
AcDbEntity
  8
0
100
AcDbPolyline
 62
1
  6
CONTINUOUS
 90
2
 70
0
 43
0.0020194132
 10
214.4385531231
 20
63.4223953927
 10
224.7158614293
 20
64.8116848804
  0
LWPOLYLINE
  5
35F
100
AcDbEntity
  8
0
100
AcDbPolyline
 62
1
  6
CONTINUOUS
 90
2
 70
0
 43
0.0020194132
 10
233.7001580572
 20
67.8623588247
 10
230.3416379262
 20
67.4163068719
  0
LWPOLYLINE
  5
360
100
AcDbEntity
  8
0
100
AcDbPolyline
 62
1
  6
CONTINUOUS
 90
2
 70
0
 43
0.0020194132
 10
255.4602362403
 20
75.2586409058
 10
253.9264850371
 20
75.0676251131
  0
LWPOLYLINE
  5
361
100
AcDbEntity
  8
0
100
AcDbPolyline
 62
1
  6
CONTINUOUS
 90
2
 70
0
 43
0.0020194132
 10
248.0692004067
 20
78.4147412908
 10
249.8273425613
 20
78.6337528542
  0
LWPOLYLINE
  5
362
100
AcDbEntity
  8
0
100
AcDbPolyline
 62
1
  6
CONTINUOUS
 90
2
 70
0
 43
0.0020194132
 10
182.12838602
 20
57.1627530797
 10
175.727669513
 20
56.3870784546
  0
LWPOLYLINE
  5
363
100
AcDbEntity
  8
0
100
AcDbPolyline
 62
1
  6
CONTINUOUS
 90
2
 70
0
 43
0.0020194132
 10
214.6012183574
 20
61.7124387337
 10
203.7248425695
 20
60.3950535679
  0
LWPOLYLINE
  5
364
100
AcDbEntity
  8
0
100
AcDbPolyline
 62
1
  6
CONTINUOUS
 90
2
 70
0
 43
0.0020194132
 10
232.5612633309
 20
67.3009463219
 10
230.6911509599
 20
67.0834428171
  0
LWPOLYLINE
  5
365
100
AcDbEntity
  8
0
100
AcDbPolyline
 62
1
  6
CONTINUOUS
 90
2
 70
0
 43
0.0020194132
 10
185.471178434
 20
61.7827701574
 10
179.4237978361
 20
61.0964993024
  0
LWPOLYLINE
  5
366
100
AcDbEntity
  8
0
100
AcDbPolyline
 62
1
  6
CONTINUOUS
 90
2
 70
0
 43
0.0020194132
 10
250.4091283361
 20
77.1502293965
 10
243.8850741381
 20
76.4158661321
  0
LWPOLYLINE
  5
367
100
AcDbEntity
  8
0
100
AcDbPolyline
 62
1
  6
CONTINUOUS
 90
2
 70
0
 43
0.0020194132
 10
249.8273425613
 20
78.6337528542
 10
251.7645820573
 20
78.8410198146
  0
LWPOLYLINE
  5
368
100
AcDbEntity
  8
0
100
AcDbPolyline
 62
1
  6
CONTINUOUS
 90
2
 70
0
 43
0.0020194132
 10
224.5009077847
 20
62.7669538903
 10
214.6012183574
 20
61.7124387337
  0
LWPOLYLINE
  5
369
100
AcDbEntity
  8
0
100
AcDbPolyline
 62
1
  6
CONTINUOUS
 90
2
 70
0
 43
0.0020194132
 10
270.7058945116
 20
76.0492774178
 10
265.3695529973
 20
75.4911033406
  0
LWPOLYLINE
  5
36A
100
AcDbEntity
  8
0
100
AcDbPolyline
 62
1
  6
CONTINUOUS
 90
2
 70
0
 43
0.0020194132
 10
224.7158614293
 20
64.8116848804
 10
235.0418214703
 20
65.8728329979
  0
LWPOLYLINE
  5
36B
100
AcDbEntity
  8
0
100
AcDbPolyline
 62
1
  6
CONTINUOUS
 90
2
 70
0
 43
0.0020194132
 10
234.659787805
 20
77.0914229788
 10
235.2139213155
 20
77.1476934792
  0
LWPOLYLINE
  5
36C
100
AcDbEntity
  8
0
100
AcDbPolyline
 62
1
  6
CONTINUOUS
 90
2
 70
0
 43
0.0020194132
 10
184.1006506606
 20
60.8876064587
 10
178.4070366728
 20
60.3209369569
  0
LWPOLYLINE
  5
36D
100
AcDbEntity
  8
0
100
AcDbPolyline
 62
1
  6
CONTINUOUS
 90
2
 70
0
 43
0.0020194132
 10
183.3762659959
 20
56.7018699583
 10
186.6427708208
 20
57.0222303117
  0
LWPOLYLINE
  5
36E
100
AcDbEntity
  8
0
100
AcDbPolyline
 62
1
  6
CONTINUOUS
 90
2
 70
0
 43
0.0020194132
 10
183.0461989603
 20
60.0698944453
 10
177.4997153319
 20
59.5418028973
  0
LWPOLYLINE
  5
36F
100
AcDbEntity
  8
0
100
AcDbPolyline
 62
1
  6
CONTINUOUS
 90
2
 70
0
 43
0.0020194132
 10
238.6963131232
 20
66.3873794773
 10
250.5221045911
 20
67.4584830962
  0
LWPOLYLINE
  5
370
100
AcDbEntity
  8
0
100
AcDbPolyline
 62
1
  6
CONTINUOUS
 90
2
 70
0
 43
0.0020194132
 10
228.1195154004
 20
76.2889662075
 10
231.6681090263
 20
76.6095682447
  0
LWPOLYLINE
  5
371
100
AcDbEntity
  8
0
100
AcDbPolyline
 62
1
  6
CONTINUOUS
 90
2
 70
0
 43
0.0020194132
 10
182.2644086196
 20
59.2378360016
 10
176.7329358738
 20
58.7541944567
  0
LWPOLYLINE
  5
372
100
AcDbEntity
  8
0
100
AcDbPolyline
 62
1
  6
CONTINUOUS
 90
2
 70
0
 43
0.0020194132
 10
236.3943935229
 20
69.6661500025
 10
230.032377951
 20
69.113003657
  0
LWPOLYLINE
  5
373
100
AcDbEntity
  8
0
100
AcDbPolyline
 62
1
  6
CONTINUOUS
 90
2
 70
0
 43
0.0020194132
 10
214.5580823947
 20
70.340229229
 10
210.7650823691
 20
70.0290276624
  0
LWPOLYLINE
  5
374
100
AcDbEntity
  8
0
100
AcDbPolyline
 62
1
  6
CONTINUOUS
 90
2
 70
0
 43
0.0020194132
 10
181.8046130349
 20
58.4102902562
 10
176.1677245778
 20
57.9619644631
  0
LWPOLYLINE
  5
375
100
AcDbEntity
  8
0
100
AcDbPolyline
 62
1
  6
CONTINUOUS
 90
2
 70
0
 43
0.0020194132
 10
188.1000255597
 20
63.1406370838
 10
181.9218293397
 20
62.6527269418
  0
LWPOLYLINE
  5
376
100
AcDbEntity
  8
0
100
AcDbPolyline
 62
1
  6
CONTINUOUS
 90
2
 70
0
 43
0.0020194132
 10
182.8212720146
 20
53.9405402808
 10
181.4289970308
 20
53.8337865958
  0
LWPOLYLINE
  5
377
100
AcDbEntity
  8
0
100
AcDbPolyline
 62
1
  6
CONTINUOUS
 90
2
 70
0
 43
0.0020194132
 10
182.4730134008
 20
56.8800287253
 10
175.727669513
 20
56.3870784546
  0
LWPOLYLINE
  5
378
100
AcDbEntity
  8
0
100
AcDbPolyline
 62
1
  6
CONTINUOUS
 90
2
 70
0
 43
0.0020194132
 10
234.2980312055
 20
58.2083521945
 10
230.1830325696
 20
57.9144064113
  0
LWPOLYLINE
  5
379
100
AcDbEntity
  8
0
100
AcDbPolyline
 62
1
  6
CONTINUOUS
 90
2
 70
0
 43
0.0020194132
 10
213.7399203204
 20
66.6066069728
 10
209.8013624929
 20
66.3574261821
  0
LWPOLYLINE
  5
37A
100
AcDbEntity
  8
0
100
AcDbPolyline
 62
1
  6
CONTINUOUS
 90
2
 70
0
 43
0.0020194132
 10
249.8378576924
 20
64.3509928817
 10
237.2168910234
 20
63.5559198621
  0
LWPOLYLINE
  5
37B
100
AcDbEntity
  8
0
100
AcDbPolyline
 62
1
  6
CONTINUOUS
 90
2
 70
0
 43
0.0020194132
 10
240.3897930203
 20
75.3825727935
 10
237.6706935547
 20
75.2115688848
  0
LWPOLYLINE
  5
37C
100
AcDbEntity
  8
0
100
AcDbPolyline
 62
1
  6
CONTINUOUS
 90
2
 70
0
 43
0.0020194132
 10
246.7068405699
 20
76.5868700403
 10
243.8850741381
 20
76.4158661321
  0
LWPOLYLINE
  5
37D
100
AcDbEntity
  8
0
100
AcDbPolyline
 62
1
  6
CONTINUOUS
 90
2
 70
0
 43
0.0020194132
 10
250.5221045911
 20
67.4584830962
 10
262.3679447464
 20
68.1718976061
  0
LWPOLYLINE
  5
37E
100
AcDbEntity
  8
0
100
AcDbPolyline
 62
1
  6
CONTINUOUS
 90
2
 70
0
 43
0.0020194132
 10
265.4666936521
 20
69.811134564
 10
264.8348052982
 20
69.7761638992
  0
LWPOLYLINE
  5
37F
100
AcDbEntity
  8
0
100
AcDbPolyline
 62
1
  6
CONTINUOUS
 90
2
 70
0
 43
0.0020194132
 10
212.2529442788
 20
64.510321709
 10
211.6424825915
 20
64.478549357
  0
LWPOLYLINE
  5
380
100
AcDbEntity
  8
0
100
AcDbPolyline
 62
1
  6
CONTINUOUS
 90
2
 70
0
 43
0.0020194132
 10
220.1130267802
 20
68.0739933695
 10
216.0855821781
 20
67.8776351348
  0
LWPOLYLINE
  5
381
100
AcDbEntity
  8
0
100
AcDbPolyline
 62
1
  6
CONTINUOUS
 90
2
 70
0
 43
0.0020194132
 10
233.4162746323
 20
63.1784511494
 10
224.5009077847
 20
62.7669538903
  0
LWPOLYLINE
  5
382
100
AcDbEntity
  8
0
100
AcDbPolyline
 62
1
  6
CONTINUOUS
 90
2
 70
0
 43
0.0020194132
 10
231.5415229179
 20
66.9685052336
 10
231.101922903
 20
66.9485915677
  0
LWPOLYLINE
  5
383
100
AcDbEntity
  8
0
100
AcDbPolyline
 62
1
  6
CONTINUOUS
 90
2
 70
0
 43
0.0020194132
 10
246.4545139491
 20
78.3460066345
 10
248.0692004067
 20
78.4147412908
  0
LWPOLYLINE
  5
384
100
AcDbEntity
  8
0
100
AcDbPolyline
 62
1
  6
CONTINUOUS
 90
2
 70
0
 43
0.0020194132
 10
189.8977589368
 20
63.6831428928
 10
183.4446485857
 20
63.4152424434
  0
LWPOLYLINE
  5
385
100
AcDbEntity
  8
0
100
AcDbPolyline
 62
1
  6
CONTINUOUS
 90
2
 70
0
 43
0.0020194132
 10
220.7659434513
 20
68.0588881588
 10
216.0855821781
 20
67.8776351348
  0
LWPOLYLINE
  5
386
100
AcDbEntity
  8
0
100
AcDbPolyline
 62
1
  6
CONTINUOUS
 90
2
 70
0
 43
0.0020194132
 10
225.5204498545
 20
66.4734064788
 10
222.6132218563
 20
66.370820289
  0
LWPOLYLINE
  5
387
100
AcDbEntity
  8
0
100
AcDbPolyline
 62
1
  6
CONTINUOUS
 90
2
 70
0
 43
0.0020194132
 10
255.064868638
 20
76.4926784276
 10
251.7749441529
 20
76.3864074618
  0
LWPOLYLINE
  5
388
100
AcDbEntity
  8
0
100
AcDbPolyline
 62
1
  6
CONTINUOUS
 90
2
 70
0
 43
0.0020194132
 10
262.3679447464
 20
68.1718976061
 10
274.2378236311
 20
68.5279574535
  0
LWPOLYLINE
  5
389
100
AcDbEntity
  8
0
100
AcDbPolyline
 62
1
  6
CONTINUOUS
 90
2
 70
0
 43
0.0020194132
 10
238.6455046876
 20
77.4860743438
 10
241.5356080618
 20
77.5715359097
  0
LWPOLYLINE
  5
38A
100
AcDbEntity
  8
0
100
AcDbPolyline
 62
1
  6
CONTINUOUS
 90
2
 70
0
 43
0.0020194132
 10
249.8378576924
 20
64.3509928817
 10
214.4385531231
 20
63.4223953927
  0
LWPOLYLINE
  5
38B
100
AcDbEntity
  8
0
100
AcDbPolyline
 62
1
  6
CONTINUOUS
 90
2
 70
0
 43
0.0020194132
 10
262.4677586849
 20
64.6727457534
 10
249.8378576924
 20
64.3509928817
  0
LWPOLYLINE
  5
38C
100
AcDbEntity
  8
0
100
AcDbPolyline
 62
1
  6
CONTINUOUS
 90
2
 70
0
 43
0.0020194132
 10
208.5204642249
 20
69.9755536015
 10
210.7650823691
 20
70.0290276624
  0
LWPOLYLINE
  5
38D
100
AcDbEntity
  8
0
100
AcDbPolyline
 62
1
  6
CONTINUOUS
 90
2
 70
0
 43
0.0020194132
 10
209.8993195481
 20
68.3363555305
 10
207.3797381053
 20
68.2793273023
  0
LWPOLYLINE
  5
38E
100
AcDbEntity
  8
0
100
AcDbPolyline
 62
1
  6
CONTINUOUS
 90
2
 70
0
 43
0.0020194132
 10
218.8361114348
 20
73.2590386643
 10
217.7058054869
 20
73.2353711414
  0
LWPOLYLINE
  5
38F
100
AcDbEntity
  8
0
100
AcDbPolyline
 62
1
  6
CONTINUOUS
 90
2
 70
0
 43
0.0020194132
 10
246.5996244879
 20
68.4929065566
 10
245.8028465823
 20
68.4796393899
  0
LWPOLYLINE
  5
390
100
AcDbEntity
  8
0
100
AcDbPolyline
 62
1
  6
CONTINUOUS
 90
2
 70
0
 43
0.0020194132
 10
191.7503321438
 20
56.5652695409
 10
175.727669513
 20
56.3870784546
  0
LWPOLYLINE
  5
391
100
AcDbEntity
  8
0
100
AcDbPolyline
 62
1
  6
CONTINUOUS
 90
2
 70
0
 43
0.0020194132
 10
272.2228531547
 20
66.4877847006
 10
238.6963131232
 20
66.3873794773
  0
LWPOLYLINE
  5
392
100
AcDbEntity
  8
0
100
AcDbPolyline
 62
1
  6
CONTINUOUS
 90
2
 70
0
 43
0.0020194132
 10
255.064868638
 20
76.4926784276
 10
255.9541374281
 20
76.4926784276
  0
LWPOLYLINE
  5
393
100
AcDbEntity
  8
0
100
AcDbPolyline
 62
1
  6
CONTINUOUS
 90
2
 70
0
 43
0.0020194132
 10
230.1289930731
 20
73.830613372
 10
226.6558802006
 20
73.854856588
  0
LWPOLYLINE
  5
394
100
AcDbEntity
  8
0
100
AcDbPolyline
 62
1
  6
CONTINUOUS
 90
2
 70
0
 43
0.0020194132
 10
257.0880948212
 20
69.2154347749
 10
256.3146582036
 20
69.2232265218
  0
LWPOLYLINE
  5
395
100
AcDbEntity
  8
0
100
AcDbPolyline
 62
1
  6
CONTINUOUS
 90
2
 70
0
 43
0.0020194132
 10
275.1130373058
 20
64.5211185879
 10
262.4677586849
 20
64.6727457534
  0
LWPOLYLINE
  5
396
100
AcDbEntity
  8
0
100
AcDbPolyline
 62
1
  6
CONTINUOUS
 90
2
 70
0
 43
0.0020194132
 10
233.4162746323
 20
63.1784511494
 10
214.4385531231
 20
63.4223953927
  0
LWPOLYLINE
  5
397
100
AcDbEntity
  8
0
100
AcDbPolyline
 62
1
  6
CONTINUOUS
 90
2
 70
0
 43
0.0020194132
 10
188.759467267
 20
59.0186867604
 10
188.4913297266
 20
59.0237306664
  0
LWPOLYLINE
  5
398
100
AcDbEntity
  8
0
100
AcDbPolyline
 62
1
  6
CONTINUOUS
 90
2
 70
0
 43
0.0020194132
 10
220.1130267802
 20
68.0739933695
 10
220.7659434513
 20
68.0588881588
  0
LWPOLYLINE
  5
399
100
AcDbEntity
  8
0
100
AcDbPolyline
 62
1
  6
CONTINUOUS
 90
2
 70
0
 43
0.0020194132
 10
218.4972291279
 20
65.4822943024
 10
218.1452878847
 20
65.4938111672
  0
LWPOLYLINE
  5
39A
100
AcDbEntity
  8
0
100
AcDbPolyline
 62
1
  6
CONTINUOUS
 90
2
 70
0
 43
0.0020194132
 10
203.6298493729
 20
67.4403015119
 10
195.5366875388
 20
67.8596124657
  0
LWPOLYLINE
  5
39B
100
AcDbEntity
  8
0
100
AcDbPolyline
 62
1
  6
CONTINUOUS
 90
2
 70
0
 43
0.0020194132
 10
247.4523561739
 20
70.552524831
 10
247.9011463091
 20
70.5267570216
  0
LWPOLYLINE
  5
39C
100
AcDbEntity
  8
0
100
AcDbPolyline
 62
1
  6
CONTINUOUS
 90
2
 70
0
 43
0.0020194132
 10
247.0477175155
 20
70.7191823126
 10
243.5585373262
 20
70.9200460594
  0
LWPOLYLINE
  5
39D
100
AcDbEntity
  8
0
100
AcDbPolyline
 62
1
  6
CONTINUOUS
 90
2
 70
0
 43
0.0020194132
 10
224.5009077847
 20
62.7669538903
 10
214.4385531231
 20
63.4223953927
  0
LWPOLYLINE
  5
39E
100
AcDbEntity
  8
0
100
AcDbPolyline
 62
1
  6
CONTINUOUS
 90
2
 70
0
 43
0.0020194132
 10
182.889984401
 20
56.7350534505
 10
183.3762659959
 20
56.7018699583
  0
LWPOLYLINE
  5
39F
100
AcDbEntity
  8
0
100
AcDbPolyline
 62
1
  6
CONTINUOUS
 90
2
 70
0
 43
0.0020194132
 10
256.7052783566
 20
72.0129799523
 10
257.2471778001
 20
71.9656437462
  0
LWPOLYLINE
  5
3A0
100
AcDbEntity
  8
0
100
AcDbPolyline
 62
1
  6
CONTINUOUS
 90
2
 70
0
 43
0.0020194132
 10
264.9348717455
 20
72.3652463886
 10
265.4767641157
 20
72.3179042535
  0
LWPOLYLINE
  5
3A1
100
AcDbEntity
  8
0
100
AcDbPolyline
 62
1
  6
CONTINUOUS
 90
2
 70
0
 43
0.0020194132
 10
217.7074248289
 20
75.0722484449
 10
218.664840046
 20
74.9808502286
  0
LWPOLYLINE
  5
3A2
100
AcDbEntity
  8
0
100
AcDbPolyline
 62
1
  6
CONTINUOUS
 90
2
 70
0
 43
0.0020194132
 10
218.8361114348
 20
73.2590386643
 10
214.3158333092
 20
73.7476709987
  0
LWPOLYLINE
  5
3A3
100
AcDbEntity
  8
0
100
AcDbPolyline
 62
1
  6
CONTINUOUS
 90
2
 70
0
 43
0.0020194132
 10
264.8348052982
 20
69.7761638992
 10
264.2600701081
 20
69.8413261546
  0
LWPOLYLINE
  5
3A4
100
AcDbEntity
  8
0
100
AcDbPolyline
 62
1
  6
CONTINUOUS
 90
2
 70
0
 43
0.0020194132
 10
211.6424825915
 20
64.478549357
 10
211.0973322541
 20
64.5429148515
  0
LWPOLYLINE
  5
3A5
100
AcDbEntity
  8
0
100
AcDbPolyline
 62
1
  6
CONTINUOUS
 90
2
 70
0
 43
0.0020194132
 10
213.7399203204
 20
66.6066069728
 10
214.1234166354
 20
66.5572908241
  0
LWPOLYLINE
  5
3A6
100
AcDbEntity
  8
0
100
AcDbPolyline
 62
1
  6
CONTINUOUS
 90
2
 70
0
 43
0.0020194132
 10
215.9042615216
 20
66.1035193405
 10
214.1234166354
 20
66.5572908241
  0
LWPOLYLINE
  5
3A7
100
AcDbEntity
  8
0
100
AcDbPolyline
 62
1
  6
CONTINUOUS
 90
2
 70
0
 43
0.0020194132
 10
182.4730134008
 20
56.8800287253
 10
182.889984401
 20
56.7350534505
  0
LWPOLYLINE
  5
3A8
100
AcDbEntity
  8
0
100
AcDbPolyline
 62
1
  6
CONTINUOUS
 90
2
 70
0
 43
0.0020194132
 10
177.8785781647
 20
54.0096334143
 10
176.995002564
 20
54.3593527812
  0
LWPOLYLINE
  5
3A9
100
AcDbEntity
  8
0
100
AcDbPolyline
 62
1
  6
CONTINUOUS
 90
2
 70
0
 43
0.0020194132
 10
188.4913297266
 20
59.0237306664
 10
188.2616311715
 20
59.1274164088
  0
LWPOLYLINE
  5
3AA
100
AcDbEntity
  8
0
100
AcDbPolyline
 62
2
  6
CONTINUOUS
 90
2
 70
0
 43
3.9999998779
 10
0.0
 20
574.0
 10
0.0
 20
594.0
  0
LWPOLYLINE
  5
3AB
100
AcDbEntity
  8
0
100
AcDbPolyline
 62
2
  6
CONTINUOUS
 90
2
 70
0
 43
3.9999998779
 10
0.0
 20
20.0
 10
-0.0002949389
 20
-0.1734496673
  0
LWPOLYLINE
  5
3AC
100
AcDbEntity
  8
0
100
AcDbPolyline
 62
1
  6
CONTINUOUS
 90
2
 70
0
 43
0.0020194132
 10
257.0160618532
 20
92.1241481174
 10
250.6804357205
 20
90.3828374781
  0
LWPOLYLINE
  5
3AD
100
AcDbEntity
  8
0
100
AcDbPolyline
 62
1
  6
CONTINUOUS
 90
2
 70
0
 43
0.0020194132
 10
192.6084403331
 20
82.8348166049
 10
188.1693984595
 20
81.9364958977
  0
LWPOLYLINE
  5
3AE
100
AcDbEntity
  8
0
100
AcDbPolyline
 62
1
  6
CONTINUOUS
 90
2
 70
0
 43
0.0020194132
 10
183.8154794554
 20
85.8753736679
 10
190.5084923852
 20
87.0950483824
  0
LWPOLYLINE
  5
3AF
100
AcDbEntity
  8
0
100
AcDbPolyline
 62
1
  6
CONTINUOUS
 90
2
 70
0
 43
0.0020194132
 10
203.9556211079
 20
88.7914763435
 10
209.8876877284
 20
89.4862352558
  0
LWPOLYLINE
  5
3B0
100
AcDbEntity
  8
0
100
AcDbPolyline
 62
1
  6
CONTINUOUS
 90
2
 70
0
 43
0.0020194132
 10
211.0052371841
 20
82.3220730121
 10
204.6885873176
 20
81.82135057
  0
LWPOLYLINE
  5
3B1
100
AcDbEntity
  8
0
100
AcDbPolyline
 62
1
  6
CONTINUOUS
 90
2
 70
0
 43
0.0020194132
 10
271.6408043345
 20
85.090959317
 10
272.0801574378
 20
85.1200986349
  0
LWPOLYLINE
  5
3B2
100
AcDbEntity
  8
0
100
AcDbPolyline
 62
1
  6
CONTINUOUS
 90
2
 70
0
 43
0.0020194132
 10
190.5084923852
 20
87.0950483824
 10
196.880988051
 20
87.4914253461
  0
LWPOLYLINE
  5
3B3
100
AcDbEntity
  8
0
100
AcDbPolyline
 62
1
  6
CONTINUOUS
 90
2
 70
0
 43
0.0020194132
 10
196.617385786
 20
83.0777425628
 10
192.6084403331
 20
82.8348166049
  0
LWPOLYLINE
  5
3B4
100
AcDbEntity
  8
0
100
AcDbPolyline
 62
1
  6
CONTINUOUS
 90
2
 70
0
 43
0.0020194132
 10
207.3492045779
 20
85.5315780267
 10
176.9105088593
 20
83.7712151648
  0
LWPOLYLINE
  5
3B5
100
AcDbEntity
  8
0
100
AcDbPolyline
 62
1
  6
CONTINUOUS
 90
2
 70
0
 43
0.0020194132
 10
210.0278011031
 20
83.6123161285
 10
196.617385786
 20
83.0777425628
  0
LWPOLYLINE
  5
3B6
100
AcDbEntity
  8
0
100
AcDbPolyline
 62
1
  6
CONTINUOUS
 90
2
 70
0
 43
0.0020194132
 10
254.1616329085
 20
80.3154009746
 10
254.6086094891
 20
80.3254260013
  0
LWPOLYLINE
  5
3B7
100
AcDbEntity
  8
0
100
AcDbPolyline
 62
7
  6
CONTINUOUS
 90
2
 70
0
 43
0.9999999695
 10
410.0
 20
97.0
 10
400.0
 20
97.0
  0
LWPOLYLINE
  5
3B8
100
AcDbEntity
  8
0
100
AcDbPolyline
 62
7
  6
CONTINUOUS
 90
2
 70
0
 43
0.9999999695
 10
40.0
 20
97.0
 10
30.0
 20
97.0
  0
LWPOLYLINE
  5
3B9
100
AcDbEntity
  8
0
100
AcDbPolyline
 62
1
  6
CONTINUOUS
 90
2
 70
0
 43
0.0020194132
 10
255.6072534081
 20
93.7889600078
 10
256.022326528
 20
93.7783728889
  0
LWPOLYLINE
  5
3BA
100
AcDbEntity
  8
0
100
AcDbPolyline
 62
1
  6
CONTINUOUS
 90
2
 70
0
 43
0.0020194132
 10
250.4091283361
 20
77.1502293965
 10
241.5356080618
 20
77.5715359097
  0
LWPOLYLINE
  5
3BB
100
AcDbEntity
  8
0
100
AcDbPolyline
 62
1
  6
CONTINUOUS
 90
2
 70
0
 43
0.0020194132
 10
251.7403490993
 20
78.2301877141
 10
248.0692004067
 20
78.4147412908
  0
LWPOLYLINE
  5
3BC
100
AcDbEntity
  8
0
100
AcDbPolyline
 62
1
  6
CONTINUOUS
 90
2
 70
0
 43
0.0020194132
 10
196.880988051
 20
87.4914253461
 10
202.8911480299
 20
87.1391924756
  0
LWPOLYLINE
  5
3BD
100
AcDbEntity
  8
0
100
AcDbPolyline
 62
1
  6
CONTINUOUS
 90
2
 70
0
 43
0.0020194132
 10
263.8047130883
 20
84.5900389436
 10
264.3713024938
 20
84.5472165643
  0
LWPOLYLINE
  5
3BE
100
AcDbEntity
  8
0
100
AcDbPolyline
 62
1
  6
CONTINUOUS
 90
2
 70
0
 43
0.0020194132
 10
200.2736654357
 20
82.7546425677
 10
196.617385786
 20
83.0777425628
  0
LWPOLYLINE
  5
3BF
100
AcDbEntity
  8
0
100
AcDbPolyline
 62
1
  6
CONTINUOUS
 90
2
 70
0
 43
0.0020194132
 10
245.015703192
 20
78.5062818851
 10
246.4545139491
 20
78.3460066345
  0
LWPOLYLINE
  5
3C0
100
AcDbEntity
  8
0
100
AcDbPolyline
 62
1
  6
CONTINUOUS
 90
2
 70
0
 43
0.0020194132
 10
264.9348717455
 20
72.3652463886
 10
263.0259637376
 20
72.5914502538
  0
LWPOLYLINE
  5
3C1
100
AcDbEntity
  8
0
100
AcDbPolyline
 62
1
  6
CONTINUOUS
 90
2
 70
0
 43
0.0020194132
 10
272.0801574378
 20
85.1200986349
 10
272.463707884
 20
85.059056521
  0
LWPOLYLINE
  5
3C2
100
AcDbEntity
  8
0
100
AcDbPolyline
 62
1
  6
CONTINUOUS
 90
2
 70
0
 43
0.0020194132
 10
268.9708709376
 20
78.8432007805
 10
266.590005089
 20
79.2642783085
  0
LWPOLYLINE
  5
3C3
100
AcDbEntity
  8
0
100
AcDbPolyline
 62
1
  6
CONTINUOUS
 90
2
 70
0
 43
0.0020194132
 10
260.021639466
 20
75.3731219397
 10
258.1780746888
 20
75.7413633821
  0
LWPOLYLINE
  5
3C4
100
AcDbEntity
  8
0
100
AcDbPolyline
 62
1
  6
CONTINUOUS
 90
2
 70
0
 43
0.0020194132
 10
235.2139213155
 20
77.1476934792
 10
235.7547842363
 20
77.021501111
  0
LWPOLYLINE
  5
3C5
100
AcDbEntity
  8
0
100
AcDbPolyline
 62
1
  6
CONTINUOUS
 90
2
 70
0
 43
0.0020194132
 10
245.8028465823
 20
68.4796393899
 10
245.0980124751
 20
68.6465639387
  0
LWPOLYLINE
  5
3C6
100
AcDbEntity
  8
0
100
AcDbPolyline
 62
1
  6
CONTINUOUS
 90
2
 70
0
 43
0.0020194132
 10
256.3146582036
 20
69.2232265218
 10
255.6537000324
 20
69.402301007
  0
LWPOLYLINE
  5
3C7
100
AcDbEntity
  8
0
100
AcDbPolyline
 62
1
  6
CONTINUOUS
 90
2
 70
0
 43
0.0020194132
 10
237.2819969046
 20
70.250678454
 10
235.7192339935
 20
70.7189432837
  0
LWPOLYLINE
  5
3C8
100
AcDbEntity
  8
0
100
AcDbPolyline
 62
1
  6
CONTINUOUS
 90
2
 70
0
 43
0.0020194132
 10
254.6086094891
 20
80.3254260013
 10
254.9889700942
 20
80.2105563668
  0
LWPOLYLINE
  5
3C9
100
AcDbEntity
  8
0
100
AcDbPolyline
 62
1
  6
CONTINUOUS
 90
2
 70
0
 43
0.0020194132
 10
231.101922903
 20
66.9485915677
 10
230.6911509599
 20
67.0834428171
  0
LWPOLYLINE
  5
3CA
100
AcDbEntity
  8
0
100
AcDbPolyline
 62
1
  6
CONTINUOUS
 90
2
 70
0
 43
0.0020194132
 10
218.664840046
 20
74.9808502286
 10
219.4609577751
 20
74.6844649294
  0
LWPOLYLINE
  5
3CB
100
AcDbEntity
  8
0
100
AcDbPolyline
 62
1
  6
CONTINUOUS
 90
2
 70
0
 43
0.0020194132
 10
264.2600701081
 20
69.8413261546
 10
263.7898212605
 20
70.0182415581
  0
LWPOLYLINE
  5
3CC
100
AcDbEntity
  8
0
100
AcDbPolyline
 62
1
  6
CONTINUOUS
 90
2
 70
0
 43
0.0020194132
 10
211.0973322541
 20
64.5429148515
 10
210.6528730002
 20
64.711478404
  0
LWPOLYLINE
  5
3CD
100
AcDbEntity
  8
0
100
AcDbPolyline
 62
1
  6
CONTINUOUS
 90
2
 70
0
 43
0.0020194132
 10
218.1452878847
 20
65.4938111672
 10
217.8402652341
 20
65.6123899613
  0
LWPOLYLINE
  5
3CE
100
AcDbEntity
  8
0
100
AcDbPolyline
 62
1
  6
CONTINUOUS
 90
2
 70
0
 43
0.0020194132
 10
247.0477175155
 20
70.7191823126
 10
247.4523561739
 20
70.552524831
  0
LWPOLYLINE
  5
3CF
100
AcDbEntity
  8
0
100
AcDbPolyline
 62
1
  6
CONTINUOUS
 90
2
 70
0
 43
0.0020194132
 10
205.8081635652
 20
81.3500887684
 10
204.6885873176
 20
81.82135057
  0
LWPOLYLINE
  5
3D0
100
AcDbEntity
  8
0
100
AcDbPolyline
 62
1
  6
CONTINUOUS
 90
2
 70
0
 43
0.0020194132
 10
176.995002564
 20
54.3593527812
 10
176.3187290574
 20
54.8947540159
  0
LWPOLYLINE
  5
3D1
100
AcDbEntity
  8
0
100
AcDbPolyline
 62
1
  6
CONTINUOUS
 90
2
 70
0
 43
0.0020194132
 10
182.12838602
 20
57.1627530797
 10
182.4730134008
 20
56.8800287253
  0
LWPOLYLINE
  5
3D2
100
AcDbEntity
  8
0
100
AcDbPolyline
 62
2
  6
CONTINUOUS
 90
2
 70
0
 43
0.4999999847
 10
30.0
 20
10.0
 10
30.0
 20
584.0
  0
LWPOLYLINE
  5
3D3
100
AcDbEntity
  8
0
100
AcDbPolyline
 62
7
  6
CONTINUOUS
 90
2
 70
0
 43
0.9999999695
 10
40.0
 20
20.0
 10
40.0
 20
574.0
  0
LWPOLYLINE
  5
3D4
100
AcDbEntity
  8
0
100
AcDbPolyline
 62
7
  6
CONTINUOUS
 90
2
 70
0
 43
0.9999999695
 10
40.1006895738
 20
129.996632795
 10
40.1006895738
 20
19.996632795
  0
LWPOLYLINE
  5
3D5
100
AcDbEntity
  8
0
100
AcDbPolyline
 62
1
  6
CONTINUOUS
 90
2
 70
0
 43
0.0020194132
 10
256.022326528
 20
93.7783728889
 10
256.4011004232
 20
93.6446245261
  0
LWPOLYLINE
  5
3D6
100
AcDbEntity
  8
0
100
AcDbPolyline
 62
1
  6
CONTINUOUS
 90
2
 70
0
 43
0.0020194132
 10
264.3713024938
 20
84.5472165643
 10
264.9755023391
 20
84.3266345674
  0
LWPOLYLINE
  5
3D7
100
AcDbEntity
  8
0
100
AcDbPolyline
 62
1
  6
CONTINUOUS
 90
2
 70
0
 43
0.0020194132
 10
235.7547842363
 20
77.021501111
 10
236.2659699861
 20
76.7564303288
  0
LWPOLYLINE
  5
3D8
100
AcDbEntity
  8
0
100
AcDbPolyline
 62
1
  6
CONTINUOUS
 90
2
 70
0
 43
0.0020194132
 10
207.3492045779
 20
85.5315780267
 10
208.7914023165
 20
84.7077927304
  0
LWPOLYLINE
  5
3D9
100
AcDbEntity
  8
0
100
AcDbPolyline
 62
1
  6
CONTINUOUS
 90
2
 70
0
 43
0.0020194132
 10
255.6537000324
 20
69.402301007
 10
255.0909162539
 20
69.7280888239
  0
LWPOLYLINE
  5
3DA
100
AcDbEntity
  8
0
100
AcDbPolyline
 62
1
  6
CONTINUOUS
 90
2
 70
0
 43
0.0020194132
 10
245.0980124751
 20
68.6465639387
 10
244.5027841389
 20
69.0079688646
  0
LWPOLYLINE
  5
3DB
100
AcDbEntity
  8
0
100
AcDbPolyline
 62
1
  6
CONTINUOUS
 90
2
 70
0
 43
0.0020194132
 10
219.4609577751
 20
74.6844649294
 10
220.0906516822
 20
74.2241566138
  0
LWPOLYLINE
  5
3DC
100
AcDbEntity
  8
0
100
AcDbPolyline
 62
1
  6
CONTINUOUS
 90
2
 70
0
 43
0.0020194132
 10
206.6340583295
 20
80.7186819623
 10
205.8081635652
 20
81.3500887684
  0
LWPOLYLINE
  5
3DD
100
AcDbEntity
  8
0
100
AcDbPolyline
 62
1
  6
CONTINUOUS
 90
2
 70
0
 43
0.0020194132
 10
217.8402652341
 20
65.6123899613
 10
217.5752594982
 20
65.8253205482
  0
LWPOLYLINE
  5
3DE
100
AcDbEntity
  8
0
100
AcDbPolyline
 62
1
  6
CONTINUOUS
 90
2
 70
0
 43
0.0020194132
 10
210.6528730002
 20
64.711478404
 10
210.3201370284
 20
64.9840440178
  0
LWPOLYLINE
  5
3DF
100
AcDbEntity
  8
0
100
AcDbPolyline
 62
1
  6
CONTINUOUS
 90
2
 70
0
 43
0.0020194132
 10
188.2616311715
 20
59.1274164088
 10
188.089393727
 20
59.2934105625
  0
LWPOLYLINE
  5
3E0
100
AcDbEntity
  8
0
100
AcDbPolyline
 62
1
  6
CONTINUOUS
 90
2
 70
0
 43
0.0020194132
 10
272.463707884
 20
85.059056521
 10
272.7889475701
 20
84.890357009
  0
LWPOLYLINE
  5
3E1
100
AcDbEntity
  8
0
100
AcDbPolyline
 62
1
  6
CONTINUOUS
 90
2
 70
0
 43
0.0020194132
 10
272.2228531547
 20
66.4877847006
 10
275.1130373058
 20
64.5211185879
  0
LWPOLYLINE
  5
3E2
100
AcDbEntity
  8
0
100
AcDbPolyline
 62
1
  6
CONTINUOUS
 90
2
 70
0
 43
0.0020194132
 10
254.9889700942
 20
80.2105563668
 10
255.3030720237
 20
79.9880523951
  0
LWPOLYLINE
  5
3E3
100
AcDbEntity
  8
0
100
AcDbPolyline
 62
1
  6
CONTINUOUS
 90
2
 70
0
 43
0.0020194132
 10
252.6159666563
 20
75.2339439828
 10
252.1583075204
 20
75.560252006
  0
LWPOLYLINE
  5
3E4
100
AcDbEntity
  8
0
100
AcDbPolyline
 62
1
  6
CONTINUOUS
 90
2
 70
0
 43
0.0020194132
 10
236.2659699861
 20
76.7564303288
 10
236.7130070458
 20
76.3744277733
  0
LWPOLYLINE
  5
3E5
100
AcDbEntity
  8
0
100
AcDbPolyline
 62
1
  6
CONTINUOUS
 90
2
 70
0
 43
0.0020194132
 10
208.7914023165
 20
84.7077927304
 10
210.0278011031
 20
83.6123161285
  0
LWPOLYLINE
  5
3E6
100
AcDbEntity
  8
0
100
AcDbPolyline
 62
1
  6
CONTINUOUS
 90
2
 70
0
 43
0.0020194132
 10
230.6911509599
 20
67.0834428171
 10
230.3416379262
 20
67.4163068719
  0
LWPOLYLINE
  5
3E7
100
AcDbEntity
  8
0
100
AcDbPolyline
 62
1
  6
CONTINUOUS
 90
2
 70
0
 43
0.0020194132
 10
217.0608069231
 20
66.4307781058
 10
216.7556311949
 20
66.7504699682
  0
LWPOLYLINE
  5
3E8
100
AcDbEntity
  8
0
100
AcDbPolyline
 62
1
  6
CONTINUOUS
 90
2
 70
0
 43
0.0020194132
 10
217.5752594982
 20
65.8253205482
 10
217.3240683264
 20
66.1055957881
  0
LWPOLYLINE
  5
3E9
100
AcDbEntity
  8
0
100
AcDbPolyline
 62
1
  6
CONTINUOUS
 90
2
 70
0
 43
0.0020194132
 10
176.3187290574
 20
54.8947540159
 10
175.8500746074
 20
55.5904657174
  0
LWPOLYLINE
  5
3EA
100
AcDbEntity
  8
0
100
AcDbPolyline
 62
1
  6
CONTINUOUS
 90
2
 70
0
 43
0.0020194132
 10
181.8803745441
 20
57.5496379705
 10
182.12838602
 20
57.1627530797
  0
LWPOLYLINE
  5
3EB
100
AcDbEntity
  8
0
100
AcDbPolyline
 62
1
  6
CONTINUOUS
 90
2
 70
0
 43
0.0020194132
 10
263.7898212605
 20
70.0182415581
 10
263.4308457535
 20
70.3151664427
  0
LWPOLYLINE
  5
3EC
100
AcDbEntity
  8
0
100
AcDbPolyline
 62
1
  6
CONTINUOUS
 90
2
 70
0
 43
0.0020194132
 10
256.4011004232
 20
93.6446245261
 10
256.6891744278
 20
93.4008971978
  0
LWPOLYLINE
  5
3ED
100
AcDbEntity
  8
0
100
AcDbPolyline
 62
1
  6
CONTINUOUS
 90
2
 70
0
 43
0.0020194132
 10
244.5027841389
 20
69.0079688646
 10
244.0371053034
 20
69.5347624973
  0
LWPOLYLINE
  5
3EE
100
AcDbEntity
  8
0
100
AcDbPolyline
 62
1
  6
CONTINUOUS
 90
2
 70
0
 43
0.0020194132
 10
217.3240683264
 20
66.1055957881
 10
217.0608069231
 20
66.4307781058
  0
LWPOLYLINE
  5
3EF
100
AcDbEntity
  8
0
100
AcDbPolyline
 62
1
  6
CONTINUOUS
 90
2
 70
0
 43
0.0020194132
 10
207.2471462987
 20
79.9149926768
 10
206.6340583295
 20
80.7186819623
  0
LWPOLYLINE
  5
3F0
100
AcDbEntity
  8
0
100
AcDbPolyline
 62
1
  6
CONTINUOUS
 90
2
 70
0
 43
0.0020194132
 10
210.0278011031
 20
83.6123161285
 10
211.0052371841
 20
82.3220730121
  0
LWPOLYLINE
  5
3F1
100
AcDbEntity
  8
0
100
AcDbPolyline
 62
1
  6
CONTINUOUS
 90
2
 70
0
 43
0.0020194132
 10
210.3201370284
 20
64.9840440178
 10
210.0855170424
 20
65.341265725
  0
LWPOLYLINE
  5
3F2
100
AcDbEntity
  8
0
100
AcDbPolyline
 62
1
  6
CONTINUOUS
 90
2
 70
0
 43
0.0020194132
 10
188.089393727
 20
59.2934105625
 10
187.9961365781
 20
59.4911901894
  0
LWPOLYLINE
  5
3F3
100
AcDbEntity
  8
0
100
AcDbPolyline
 62
7
  6
CONTINUOUS
 90
2
 70
0
 43
0.9999999695
 10
410.0
 20
197.0
 10
400.0
 20
197.0
  0
LWPOLYLINE
  5
3F4
100
AcDbEntity
  8
0
100
AcDbPolyline
 62
7
  6
CONTINUOUS
 90
2
 70
0
 43
0.9999999695
 10
40.0
 20
197.0
 10
30.0
 20
197.0
  0
LWPOLYLINE
  5
3F5
100
AcDbEntity
  8
0
100
AcDbPolyline
 62
1
  6
CONTINUOUS
 90
2
 70
0
 43
0.0020194132
 10
255.0909162539
 20
69.7280888239
 10
254.6694114077
 20
70.2094115839
  0
LWPOLYLINE
  5
3F6
100
AcDbEntity
  8
0
100
AcDbPolyline
 62
1
  6
CONTINUOUS
 90
2
 70
0
 43
0.0020194132
 10
255.3030720237
 20
79.9880523951
 10
255.5710951349
 20
79.6393342346
  0
LWPOLYLINE
  5
3F7
100
AcDbEntity
  8
0
100
AcDbPolyline
 62
7
  6
CONTINUOUS
 90
2
 70
0
 43
0.9999999695
 10
120.0
 20
10.0
 10
120.0
 20
20.0
  0
LWPOLYLINE
  5
3F8
100
AcDbEntity
  8
0
100
AcDbPolyline
 62
7
  6
CONTINUOUS
 90
2
 70
0
 43
0.9999999695
 10
120.0
 20
574.0
 10
120.0
 20
584.0
  0
LWPOLYLINE
  5
3F9
100
AcDbEntity
  8
0
100
AcDbPolyline
 62
2
  6
CONTINUOUS
 90
2
 70
0
 43
0.4999999847
 10
34.0
 20
217.0
 10
40.0
 20
217.0
  0
LWPOLYLINE
  5
3FA
100
AcDbEntity
  8
0
100
AcDbPolyline
 62
1
  6
CONTINUOUS
 90
2
 70
0
 43
0.0020194132
 10
272.7889475701
 20
84.890357009
 10
273.029806567
 20
84.5729197614
  0
LWPOLYLINE
  5
3FB
100
AcDbEntity
  8
0
100
AcDbPolyline
 62
1
  6
CONTINUOUS
 90
2
 70
0
 43
0.0020194132
 10
252.1583075204
 20
75.560252006
 10
251.9012572481
 20
75.9261927356
  0
LWPOLYLINE
  5
3FC
100
AcDbEntity
  8
0
100
AcDbPolyline
 62
1
  6
CONTINUOUS
 90
2
 70
0
 43
0.0020194132
 10
263.4308457535
 20
70.3151664427
 10
263.1710695128
 20
70.7281305402
  0
LWPOLYLINE
  5
3FD
100
AcDbEntity
  8
0
100
AcDbPolyline
 62
1
  6
CONTINUOUS
 90
2
 70
0
 43
0.0020194132
 10
230.3416379262
 20
67.4163068719
 10
230.094445897
 20
67.8857480015
  0
LWPOLYLINE
  5
3FE
100
AcDbEntity
  8
0
100
AcDbPolyline
 62
1
  6
CONTINUOUS
 90
2
 70
0
 43
0.0020194132
 10
244.0371053034
 20
69.5347624973
 10
243.7118224101
 20
70.1817794551
  0
LWPOLYLINE
  5
3FF
100
AcDbEntity
  8
0
100
AcDbPolyline
 62
1
  6
CONTINUOUS
 90
2
 70
0
 43
0.0020194132
 10
211.0052371841
 20
82.3220730121
 10
211.6724832579
 20
80.9025946436
  0
LWPOLYLINE
  5
400
100
AcDbEntity
  8
0
100
AcDbPolyline
 62
1
  6
CONTINUOUS
 90
2
 70
0
 43
0.0020194132
 10
207.67339938
 20
78.8767530127
 10
207.2471462987
 20
79.9149926768
  0
LWPOLYLINE
  5
401
100
AcDbEntity
  8
0
100
AcDbPolyline
 62
1
  6
CONTINUOUS
 90
2
 70
0
 43
0.0020194132
 10
210.0855170424
 20
65.341265725
 10
209.9127139151
 20
65.7983975265
  0
LWPOLYLINE
  5
402
100
AcDbEntity
  8
0
100
AcDbPolyline
 62
1
  6
CONTINUOUS
 90
2
 70
0
 43
0.0020194132
 10
181.7630358411
 20
57.9835585123
 10
181.8803745441
 20
57.5496379705
  0
LWPOLYLINE
  5
403
100
AcDbEntity
  8
0
100
AcDbPolyline
 62
1
  6
CONTINUOUS
 90
2
 70
0
 43
0.0020194132
 10
175.8500746074
 20
55.5904657174
 10
175.727669513
 20
56.3870784546
  0
LWPOLYLINE
  5
404
100
AcDbEntity
  8
0
100
AcDbPolyline
 62
2
  6
CONTINUOUS
 90
2
 70
0
 43
0.4999999847
 10
34.0
 20
237.0
 10
40.0
 20
237.0
  0
LWPOLYLINE
  5
405
100
AcDbEntity
  8
0
100
AcDbPolyline
 62
1
  6
CONTINUOUS
 90
2
 70
0
 43
0.0020194132
 10
256.6891744278
 20
93.4008971978
 10
256.8895303186
 20
93.0573418606
  0
LWPOLYLINE
  5
406
100
AcDbEntity
  8
0
100
AcDbPolyline
 62
1
  6
CONTINUOUS
 90
2
 70
0
 43
0.0020194132
 10
187.9961365781
 20
59.4911901894
 10
187.9848414862
 20
59.7176505283
  0
LWPOLYLINE
  5
407
100
AcDbEntity
  8
0
100
AcDbPolyline
 62
2
  6
CONTINUOUS
 90
2
 70
0
 43
0.4999999847
 10
34.0
 20
257.0
 10
40.0
 20
257.0
  0
LWPOLYLINE
  5
408
100
AcDbEntity
  8
0
100
AcDbPolyline
 62
1
  6
CONTINUOUS
 90
2
 70
0
 43
0.0020194132
 10
253.8178643198
 20
90.2984404814
 10
253.6435248617
 20
90.6903709498
  0
LWPOLYLINE
  5
409
100
AcDbEntity
  8
0
100
AcDbPolyline
 62
1
  6
CONTINUOUS
 90
2
 70
0
 43
0.0020194132
 10
230.094445897
 20
67.8857480015
 10
229.9748076769
 20
68.4545202083
  0
LWPOLYLINE
  5
40A
100
AcDbEntity
  8
0
100
AcDbPolyline
 62
1
  6
CONTINUOUS
 90
2
 70
0
 43
0.0020194132
 10
211.6724832579
 20
80.9025946436
 10
211.985003174
 20
79.4090543636
  0
LWPOLYLINE
  5
40B
100
AcDbEntity
  8
0
100
AcDbPolyline
 62
1
  6
CONTINUOUS
 90
2
 70
0
 43
0.0020194132
 10
209.9127139151
 20
65.7983975265
 10
209.8013624929
 20
66.3574261821
  0
LWPOLYLINE
  5
40C
100
AcDbEntity
  8
0
100
AcDbPolyline
 62
1
  6
CONTINUOUS
 90
2
 70
0
 43
0.0020194132
 10
213.5776812988
 20
67.5095525075
 10
213.7399203204
 20
66.6066069728
  0
LWPOLYLINE
  5
40D
100
AcDbEntity
  8
0
100
AcDbPolyline
 62
1
  6
CONTINUOUS
 90
2
 70
0
 43
0.0020194132
 10
207.8719210354
 20
77.5973770201
 10
207.67339938
 20
78.8767530127
  0
LWPOLYLINE
  5
40E
100
AcDbEntity
  8
0
100
AcDbPolyline
 62
1
  6
CONTINUOUS
 90
2
 70
0
 43
0.0020194132
 10
218.9158760367
 20
72.4795086395
 10
218.8361114348
 20
73.2590386643
  0
LWPOLYLINE
  5
40F
100
AcDbEntity
  8
0
100
AcDbPolyline
 62
1
  6
CONTINUOUS
 90
2
 70
0
 43
0.0020194132
 10
209.8013624929
 20
66.3574261821
 10
209.7576425214
 20
67.0254419944
  0
LWPOLYLINE
  5
410
100
AcDbEntity
  8
0
100
AcDbPolyline
 62
1
  6
CONTINUOUS
 90
2
 70
0
 43
0.0020194132
 10
181.8046130349
 20
58.4102902562
 10
181.7630358411
 20
57.9835585123
  0
LWPOLYLINE
  5
411
100
AcDbEntity
  8
0
100
AcDbPolyline
 62
1
  6
CONTINUOUS
 90
2
 70
0
 43
0.0020194132
 10
175.727669513
 20
56.3870784546
 10
175.8315762554
 20
57.17052525
  0
LWPOLYLINE
  5
412
100
AcDbEntity
  8
0
100
AcDbPolyline
 62
2
  6
CONTINUOUS
 90
2
 70
0
 43
0.4999999847
 10
34.0
 20
277.0
 10
40.0
 20
277.0
  0
LWPOLYLINE
  5
413
100
AcDbEntity
  8
0
100
AcDbPolyline
 62
7
  6
CONTINUOUS
 90
2
 70
0
 43
0.9999999695
 10
410.0
 20
297.0
 10
400.0
 20
297.0
  0
LWPOLYLINE
  5
414
100
AcDbEntity
  8
0
100
AcDbPolyline
 62
7
  6
CONTINUOUS
 90
2
 70
0
 43
0.9999999695
 10
40.0
 20
297.0
 10
30.0
 20
297.0
  0
LWPOLYLINE
  5
415
100
AcDbEntity
  8
0
100
AcDbPolyline
 62
1
  6
CONTINUOUS
 90
2
 70
0
 43
0.0020194132
 10
263.1710695128
 20
70.7281305402
 10
262.9982815791
 20
71.2618444137
  0
LWPOLYLINE
  5
416
100
AcDbEntity
  8
0
100
AcDbPolyline
 62
1
  6
CONTINUOUS
 90
2
 70
0
 43
0.0020194132
 10
264.9755023391
 20
84.3266345674
 10
265.1434422532
 20
83.7962189451
  0
LWPOLYLINE
  5
417
100
AcDbEntity
  8
0
100
AcDbPolyline
 62
1
  6
CONTINUOUS
 90
2
 70
0
 43
0.0020194132
 10
273.029806567
 20
84.5729197614
 10
273.1649868109
 20
84.1274646889
  0
LWPOLYLINE
  5
418
100
AcDbEntity
  8
0
100
AcDbPolyline
 62
1
  6
CONTINUOUS
 90
2
 70
0
 43
0.0020194132
 10
251.9012572481
 20
75.9261927356
 10
251.7749441529
 20
76.3864074618
  0
LWPOLYLINE
  5
419
100
AcDbEntity
  8
0
100
AcDbPolyline
 62
1
  6
CONTINUOUS
 90
2
 70
0
 43
0.0020194132
 10
256.8895303186
 20
93.0573418606
 10
257.0014291858
 20
92.6229664942
  0
LWPOLYLINE
  5
41A
100
AcDbEntity
  8
0
100
AcDbPolyline
 62
1
  6
CONTINUOUS
 90
2
 70
0
 43
0.0020194132
 10
254.6694114077
 20
70.2094115839
 10
254.5146151841
 20
70.8394523262
  0
LWPOLYLINE
  5
41B
100
AcDbEntity
  8
0
100
AcDbPolyline
 62
1
  6
CONTINUOUS
 90
2
 70
0
 43
0.0020194132
 10
243.7118224101
 20
70.1817794551
 10
243.5585373262
 20
70.9200460594
  0
LWPOLYLINE
  5
41C
100
AcDbEntity
  8
0
100
AcDbPolyline
 62
1
  6
CONTINUOUS
 90
2
 70
0
 43
0.0020194132
 10
236.7130070458
 20
76.3744277733
 10
236.8030664432
 20
75.8188328155
  0
LWPOLYLINE
  5
41D
100
AcDbEntity
  8
0
100
AcDbPolyline
 62
1
  6
CONTINUOUS
 90
2
 70
0
 43
0.0020194132
 10
247.0011128829
 20
71.8070076676
 10
247.0477175155
 20
70.7191823126
  0
LWPOLYLINE
  5
41E
100
AcDbEntity
  8
0
100
AcDbPolyline
 62
7
  6
CONTINUOUS
 90
2
 70
0
 43
0.9999999695
 10
220.0
 20
10.0
 10
220.0
 20
20.0
  0
LWPOLYLINE
  5
41F
100
AcDbEntity
  8
0
100
AcDbPolyline
 62
7
  6
CONTINUOUS
 90
2
 70
0
 43
0.9999999695
 10
220.0
 20
574.0
 10
220.0
 20
584.0
  0
LWPOLYLINE
  5
420
100
AcDbEntity
  8
0
100
AcDbPolyline
 62
1
  6
CONTINUOUS
 90
2
 70
0
 43
0.0020194132
 10
211.985003174
 20
79.4090543636
 10
211.9580266536
 20
77.8199039603
  0
LWPOLYLINE
  5
421
100
AcDbEntity
  8
0
100
AcDbPolyline
 62
1
  6
CONTINUOUS
 90
2
 70
0
 43
0.0020194132
 10
207.8241435307
 20
76.2005616059
 10
207.8719210354
 20
77.5973770201
  0
LWPOLYLINE
  5
422
100
AcDbEntity
  8
0
100
AcDbPolyline
 62
1
  6
CONTINUOUS
 90
2
 70
0
 43
0.0020194132
 10
209.7576425214
 20
67.0254419944
 10
209.7919541668
 20
67.7262795965
  0
LWPOLYLINE
  5
423
100
AcDbEntity
  8
0
100
AcDbPolyline
 62
1
  6
CONTINUOUS
 90
2
 70
0
 43
0.0020194132
 10
213.6515445768
 20
68.4147369335
 10
213.5776812988
 20
67.5095525075
  0
LWPOLYLINE
  5
424
100
AcDbEntity
  8
0
100
AcDbPolyline
 62
2
  6
CONTINUOUS
 90
2
 70
0
 43
0.4999999847
 10
34.0
 20
317.0
 10
40.0
 20
317.0
  0
LWPOLYLINE
  5
425
100
AcDbEntity
  8
0
100
AcDbPolyline
 62
1
  6
CONTINUOUS
 90
2
 70
0
 43
0.0020194132
 10
260.0906205748
 20
74.8717130888
 10
260.021639466
 20
75.3731219397
  0
LWPOLYLINE
  5
426
100
AcDbEntity
  8
0
100
AcDbPolyline
 62
1
  6
CONTINUOUS
 90
2
 70
0
 43
0.0020194132
 10
268.3202070936
 20
75.2239039339
 10
268.2512328549
 20
75.7253075991
  0
LWPOLYLINE
  5
427
100
AcDbEntity
  8
0
100
AcDbPolyline
 62
1
  6
CONTINUOUS
 90
2
 70
0
 43
0.0020194132
 10
255.5710951349
 20
79.6393342346
 10
255.6790997826
 20
78.8230224376
  0
LWPOLYLINE
  5
428
100
AcDbEntity
  8
0
100
AcDbPolyline
 62
1
  6
CONTINUOUS
 90
2
 70
0
 43
0.0020194132
 10
262.9982815791
 20
71.2618444137
 10
262.9370910989
 20
71.8951918535
  0
LWPOLYLINE
  5
429
100
AcDbEntity
  8
0
100
AcDbPolyline
 62
1
  6
CONTINUOUS
 90
2
 70
0
 43
0.0020194132
 10
253.8486857456
 20
89.852810937
 10
253.8178643198
 20
90.2984404814
  0
LWPOLYLINE
  5
42A
100
AcDbEntity
  8
0
100
AcDbPolyline
 62
1
  6
CONTINUOUS
 90
2
 70
0
 43
0.0020194132
 10
270.5551409701
 20
80.0832820297
 10
270.6797749771
 20
78.063402643
  0
LWPOLYLINE
  5
42B
100
AcDbEntity
  8
0
100
AcDbPolyline
 62
1
  6
CONTINUOUS
 90
2
 70
0
 43
0.0020194132
 10
254.5146151841
 20
70.8394523262
 10
254.4805013418
 20
71.5559898301
  0
LWPOLYLINE
  5
42C
100
AcDbEntity
  8
0
100
AcDbPolyline
 62
1
  6
CONTINUOUS
 90
2
 70
0
 43
0.0020194132
 10
257.0014291858
 20
92.6229664942
 10
257.0160618532
 20
92.1241481174
  0
LWPOLYLINE
  5
42D
100
AcDbEntity
  8
0
100
AcDbPolyline
 62
1
  6
CONTINUOUS
 90
2
 70
0
 43
0.0020194132
 10
260.7157521658
 20
77.0172473788
 10
260.7157521658
 20
78.1116885484
  0
LWPOLYLINE
  5
42E
100
AcDbEntity
  8
0
100
AcDbPolyline
 62
1
  6
CONTINUOUS
 90
2
 70
0
 43
0.0020194132
 10
251.7749441529
 20
76.3864074618
 10
251.7861614131
 20
76.9353079076
  0
LWPOLYLINE
  5
42F
100
AcDbEntity
  8
0
100
AcDbPolyline
 62
1
  6
CONTINUOUS
 90
2
 70
0
 43
0.0020194132
 10
251.7645820573
 20
78.8410198146
 10
251.7403490993
 20
78.2301877141
  0
LWPOLYLINE
  5
430
100
AcDbEntity
  8
0
100
AcDbPolyline
 62
1
  6
CONTINUOUS
 90
2
 70
0
 43
0.0020194132
 10
243.5585373262
 20
70.9200460594
 10
243.598478299
 20
71.7471407498
  0
LWPOLYLINE
  5
431
100
AcDbEntity
  8
0
100
AcDbPolyline
 62
1
  6
CONTINUOUS
 90
2
 70
0
 43
0.0020194132
 10
229.9748076769
 20
68.4545202083
 10
230.032377951
 20
69.113003657
  0
LWPOLYLINE
  5
432
100
AcDbEntity
  8
0
100
AcDbPolyline
 62
1
  6
CONTINUOUS
 90
2
 70
0
 43
0.0020194132
 10
209.7919541668
 20
67.7262795965
 10
209.8993195481
 20
68.3363555305
  0
LWPOLYLINE
  5
433
100
AcDbEntity
  8
0
100
AcDbPolyline
 62
1
  6
CONTINUOUS
 90
2
 70
0
 43
0.0020194132
 10
218.7645037353
 20
71.6304911849
 10
218.9158760367
 20
72.4795086395
  0
LWPOLYLINE
  5
434
100
AcDbEntity
  8
0
100
AcDbPolyline
 62
1
  6
CONTINUOUS
 90
2
 70
0
 43
0.0020194132
 10
207.5214592082
 20
74.5741000304
 10
207.8241435307
 20
76.2005616059
  0
LWPOLYLINE
  5
435
100
AcDbEntity
  8
0
100
AcDbPolyline
 62
1
  6
CONTINUOUS
 90
2
 70
0
 43
0.0020194132
 10
211.9580266536
 20
77.8199039603
 10
211.5976167127
 20
76.0584856937
  0
LWPOLYLINE
  5
436
100
AcDbEntity
  8
0
100
AcDbPolyline
 62
1
  6
CONTINUOUS
 90
2
 70
0
 43
0.0020194132
 10
187.9848414862
 20
59.7176505283
 10
188.0395506202
 20
59.9634367687
  0
LWPOLYLINE
  5
437
100
AcDbEntity
  8
0
100
AcDbPolyline
 62
2
  6
CONTINUOUS
 90
2
 70
0
 43
0.4999999847
 10
34.0
 20
337.0
 10
40.0
 20
337.0
  0
LWPOLYLINE
  5
438
100
AcDbEntity
  8
0
100
AcDbPolyline
 62
1
  6
CONTINUOUS
 90
2
 70
0
 43
0.0020194132
 10
273.1649868109
 20
84.1274646889
 10
273.1751411854
 20
83.6178525534
  0
LWPOLYLINE
  5
439
100
AcDbEntity
  8
0
100
AcDbPolyline
 62
1
  6
CONTINUOUS
 90
2
 70
0
 43
0.0020194132
 10
270.6797749771
 20
78.063402643
 10
270.7058945116
 20
76.0492774178
  0
LWPOLYLINE
  5
43A
100
AcDbEntity
  8
0
100
AcDbPolyline
 62
1
  6
CONTINUOUS
 90
2
 70
0
 43
0.0020194132
 10
262.4855658815
 20
79.921325092
 10
262.4719146485
 20
77.636561014
  0
LWPOLYLINE
  5
43B
100
AcDbEntity
  8
0
100
AcDbPolyline
 62
1
  6
CONTINUOUS
 90
2
 70
0
 43
0.0020194132
 10
268.9571389282
 20
77.6256561831
 10
268.9708709376
 20
78.8432007805
  0
LWPOLYLINE
  5
43C
100
AcDbEntity
  8
0
100
AcDbPolyline
 62
1
  6
CONTINUOUS
 90
2
 70
0
 43
0.0020194132
 10
265.1434422532
 20
83.7962189451
 10
265.1301530981
 20
83.2666546005
  0
LWPOLYLINE
  5
43D
100
AcDbEntity
  8
0
100
AcDbPolyline
 62
1
  6
CONTINUOUS
 90
2
 70
0
 43
0.0020194132
 10
270.7058945116
 20
76.0492774178
 10
270.6339788606
 20
74.0360280812
  0
LWPOLYLINE
  5
43E
100
AcDbEntity
  8
0
100
AcDbPolyline
 62
1
  6
CONTINUOUS
 90
2
 70
0
 43
0.0020194132
 10
260.9144624233
 20
79.909854825
 10
261.0216528752
 20
82.0282192564
  0
LWPOLYLINE
  5
43F
100
AcDbEntity
  8
0
100
AcDbPolyline
 62
1
  6
CONTINUOUS
 90
2
 70
0
 43
0.0020194132
 10
268.9430838124
 20
80.3180993946
 10
268.9969909362
 20
81.3321490557
  0
LWPOLYLINE
  5
440
100
AcDbEntity
  8
0
100
AcDbPolyline
 62
1
  6
CONTINUOUS
 90
2
 70
0
 43
0.0020194132
 10
255.6790997826
 20
78.8230224376
 10
255.6311383286
 20
78.0424254132
  0
LWPOLYLINE
  5
441
100
AcDbEntity
  8
0
100
AcDbPolyline
 62
1
  6
CONTINUOUS
 90
2
 70
0
 43
0.0020194132
 10
256.7565013513
 20
72.6103115373
 10
256.7052783566
 20
72.0129799523
  0
LWPOLYLINE
  5
442
100
AcDbEntity
  8
0
100
AcDbPolyline
 62
1
  6
CONTINUOUS
 90
2
 70
0
 43
0.0020194132
 10
264.9861013601
 20
72.9625703693
 10
264.9348717455
 20
72.3652463886
  0
LWPOLYLINE
  5
443
100
AcDbEntity
  8
0
100
AcDbPolyline
 62
1
  6
CONTINUOUS
 90
2
 70
0
 43
0.0020194132
 10
262.6809643013
 20
76.3771741754
 10
262.5429022339
 20
74.7813692015
  0
LWPOLYLINE
  5
444
100
AcDbEntity
  8
0
100
AcDbPolyline
 62
1
  6
CONTINUOUS
 90
2
 70
0
 43
0.0020194132
 10
257.0160618532
 20
92.1241481174
 10
256.949880242
 20
91.5801891992
  0
LWPOLYLINE
  5
445
100
AcDbEntity
  8
0
100
AcDbPolyline
 62
1
  6
CONTINUOUS
 90
2
 70
0
 43
0.0020194132
 10
236.8030664432
 20
75.8188328155
 10
236.7269972544
 20
75.2050590176
  0
LWPOLYLINE
  5
446
100
AcDbEntity
  8
0
100
AcDbPolyline
 62
1
  6
CONTINUOUS
 90
2
 70
0
 43
0.0020194132
 10
254.4805013418
 20
71.5559898301
 10
254.5904961457
 20
72.3126735438
  0
LWPOLYLINE
  5
447
100
AcDbEntity
  8
0
100
AcDbPolyline
 62
1
  6
CONTINUOUS
 90
2
 70
0
 43
0.0020194132
 10
247.1783680205
 20
72.8428668895
 10
247.0011128829
 20
71.8070076676
  0
LWPOLYLINE
  5
448
100
AcDbEntity
  8
0
100
AcDbPolyline
 62
1
  6
CONTINUOUS
 90
2
 70
0
 43
0.0020194132
 10
206.9464133978
 20
72.7926453453
 10
207.5214592082
 20
74.5741000304
  0
LWPOLYLINE
  5
449
100
AcDbEntity
  8
0
100
AcDbPolyline
 62
1
  6
CONTINUOUS
 90
2
 70
0
 43
0.0020194132
 10
189.7029798416
 20
63.1270760282
 10
189.8977589368
 20
63.6831428928
  0
LWPOLYLINE
  5
44A
100
AcDbEntity
  8
0
100
AcDbPolyline
 62
1
  6
CONTINUOUS
 90
2
 70
0
 43
0.0020194132
 10
203.7248425695
 20
60.3950535679
 10
204.2057860136
 20
61.7043603006
  0
LWPOLYLINE
  5
44B
100
AcDbEntity
  8
0
100
AcDbPolyline
 62
1
  6
CONTINUOUS
 90
2
 70
0
 43
0.0020194132
 10
188.0395506202
 20
59.9634367687
 10
188.1397244511
 20
60.2243475521
  0
LWPOLYLINE
  5
44C
100
AcDbEntity
  8
0
100
AcDbPolyline
 62
1
  6
CONTINUOUS
 90
2
 70
0
 43
0.0020194132
 10
175.8315762554
 20
57.17052525
 10
176.1677245778
 20
57.9619644631
  0
LWPOLYLINE
  5
44D
100
AcDbEntity
  8
0
100
AcDbPolyline
 62
1
  6
CONTINUOUS
 90
2
 70
0
 43
0.0020194132
 10
181.98187537
 20
58.8218697982
 10
181.8046130349
 20
58.4102902562
  0
LWPOLYLINE
  5
44E
100
AcDbEntity
  8
0
100
AcDbPolyline
 62
1
  6
CONTINUOUS
 90
2
 70
0
 43
0.0020194132
 10
189.4821055536
 20
62.6303837092
 10
189.7029798416
 20
63.1270760282
  0
LWPOLYLINE
  5
44F
100
AcDbEntity
  8
0
100
AcDbPolyline
 62
1
  6
CONTINUOUS
 90
2
 70
0
 43
0.0020194132
 10
172.4681229581
 20
75.220454303
 10
176.9105088593
 20
83.7712151648
  0
LWPOLYLINE
  5
450
100
AcDbEntity
  8
0
100
AcDbPolyline
 62
2
  6
CONTINUOUS
 90
2
 70
0
 43
0.4999999847
 10
34.0
 20
357.0
 10
40.0
 20
357.0
  0
LWPOLYLINE
  5
451
100
AcDbEntity
  8
0
100
AcDbPolyline
 62
1
  6
CONTINUOUS
 90
2
 70
0
 43
0.0020194132
 10
262.9370910989
 20
71.8951918535
 10
263.0259637376
 20
72.5914502538
  0
LWPOLYLINE
  5
452
100
AcDbEntity
  8
0
100
AcDbPolyline
 62
1
  6
CONTINUOUS
 90
2
 70
0
 43
0.0020194132
 10
268.9969909362
 20
81.3321490557
 10
269.1530315401
 20
82.2780891452
  0
LWPOLYLINE
  5
453
100
AcDbEntity
  8
0
100
AcDbPolyline
 62
1
  6
CONTINUOUS
 90
2
 70
0
 43
0.0020194132
 10
270.6339788606
 20
74.0360280812
 10
270.4648977562
 20
73.1265368828
  0
LWPOLYLINE
  5
454
100
AcDbEntity
  8
0
100
AcDbPolyline
 62
1
  6
CONTINUOUS
 90
2
 70
0
 43
0.0020194132
 10
251.7861614131
 20
76.9353079076
 10
251.9130158701
 20
77.5359113745
  0
LWPOLYLINE
  5
455
100
AcDbEntity
  8
0
100
AcDbPolyline
 62
1
  6
CONTINUOUS
 90
2
 70
0
 43
0.0020194132
 10
253.7412412056
 20
89.3691210642
 10
253.8486857456
 20
89.852810937
  0
LWPOLYLINE
  5
456
100
AcDbEntity
  8
0
100
AcDbPolyline
 62
1
  6
CONTINUOUS
 90
2
 70
0
 43
0.0020194132
 10
262.5429022339
 20
74.7813692015
 10
262.198180539
 20
73.2666005766
  0
LWPOLYLINE
  5
457
100
AcDbEntity
  8
0
100
AcDbPolyline
 62
1
  6
CONTINUOUS
 90
2
 70
0
 43
0.0020194132
 10
259.9732677508
 20
74.3694864542
 10
260.0906205748
 20
74.8717130888
  0
LWPOLYLINE
  5
458
100
AcDbEntity
  8
0
100
AcDbPolyline
 62
1
  6
CONTINUOUS
 90
2
 70
0
 43
0.0020194132
 10
256.949880242
 20
91.5801891992
 10
256.8028831236
 20
90.9934763656
  0
LWPOLYLINE
  5
459
100
AcDbEntity
  8
0
100
AcDbPolyline
 62
1
  6
CONTINUOUS
 90
2
 70
0
 43
0.0020194132
 10
255.6311383286
 20
78.0424254132
 10
255.4320166963
 20
77.2752973673
  0
LWPOLYLINE
  5
45A
100
AcDbEntity
  8
0
100
AcDbPolyline
 62
1
  6
CONTINUOUS
 90
2
 70
0
 43
0.0020194132
 10
243.598478299
 20
71.7471407498
 10
243.8470630793
 20
72.6636483209
  0
LWPOLYLINE
  5
45B
100
AcDbEntity
  8
0
100
AcDbPolyline
 62
1
  6
CONTINUOUS
 90
2
 70
0
 43
0.0020194132
 10
213.9753912378
 20
69.3671397813
 10
213.6515445768
 20
68.4147369335
  0
LWPOLYLINE
  5
45C
100
AcDbEntity
  8
0
100
AcDbPolyline
 62
1
  6
CONTINUOUS
 90
2
 70
0
 43
0.0020194132
 10
230.032377951
 20
69.113003657
 10
230.2797327911
 20
69.8222983686
  0
LWPOLYLINE
  5
45D
100
AcDbEntity
  8
0
100
AcDbPolyline
 62
1
  6
CONTINUOUS
 90
2
 70
0
 43
0.0020194132
 10
236.7269972544
 20
75.2050590176
 10
236.4974968256
 20
74.5533929736
  0
LWPOLYLINE
  5
45E
100
AcDbEntity
  8
0
100
AcDbPolyline
 62
1
  6
CONTINUOUS
 90
2
 70
0
 43
0.0020194132
 10
211.5976167127
 20
76.0584856937
 10
210.8960583282
 20
74.1441036862
  0
LWPOLYLINE
  5
45F
100
AcDbEntity
  8
0
100
AcDbPolyline
 62
1
  6
CONTINUOUS
 90
2
 70
0
 43
0.0020194132
 10
218.412372302
 20
70.7985019151
 10
218.7645037353
 20
71.6304911849
  0
LWPOLYLINE
  5
460
100
AcDbEntity
  8
0
100
AcDbPolyline
 62
1
  6
CONTINUOUS
 90
2
 70
0
 43
0.0020194132
 10
206.1131078466
 20
70.9814039593
 10
206.9464133978
 20
72.7926453453
  0
LWPOLYLINE
  5
461
100
AcDbEntity
  8
0
100
AcDbPolyline
 62
1
  6
CONTINUOUS
 90
2
 70
0
 43
0.0020194132
 10
188.1397244511
 20
60.2243475521
 10
188.2725201123
 20
60.4959027139
  0
LWPOLYLINE
  5
462
100
AcDbEntity
  8
0
100
AcDbPolyline
 62
1
  6
CONTINUOUS
 90
2
 70
0
 43
0.0020194132
 10
193.3367388148
 20
64.9631277462
 10
192.937245357
 20
64.183599892
  0
LWPOLYLINE
  5
463
100
AcDbEntity
  8
0
100
AcDbPolyline
 62
1
  6
CONTINUOUS
 90
2
 70
0
 43
0.0020194132
 10
189.2529480432
 20
62.1843894816
 10
189.4821055536
 20
62.6303837092
  0
LWPOLYLINE
  5
464
100
AcDbEntity
  8
0
100
AcDbPolyline
 62
1
  6
CONTINUOUS
 90
2
 70
0
 43
0.0020194132
 10
191.4551303851
 20
66.4926312923
 10
200.2736654357
 20
82.7546425677
  0
LWPOLYLINE
  5
465
100
AcDbEntity
  8
0
100
AcDbPolyline
 62
1
  6
CONTINUOUS
 90
2
 70
0
 43
0.0020194132
 10
192.937245357
 20
64.183599892
 10
192.5446673271
 20
63.4723844976
  0
LWPOLYLINE
  5
466
100
AcDbEntity
  8
0
100
AcDbPolyline
 62
1
  6
CONTINUOUS
 90
2
 70
0
 43
0.0020194132
 10
189.027526769
 20
61.7820372422
 10
189.2529480432
 20
62.1843894816
  0
LWPOLYLINE
  5
467
100
AcDbEntity
  8
0
100
AcDbPolyline
 62
1
  6
CONTINUOUS
 90
2
 70
0
 43
0.0020194132
 10
188.2725201123
 20
60.4959027139
 10
188.4329660827
 20
60.7792141336
  0
LWPOLYLINE
  5
468
100
AcDbEntity
  8
0
100
AcDbPolyline
 62
1
  6
CONTINUOUS
 90
2
 70
0
 43
0.0020194132
 10
188.8135143163
 20
61.4175181017
 10
189.027526769
 20
61.7820372422
  0
LWPOLYLINE
  5
469
100
AcDbEntity
  8
0
100
AcDbPolyline
 62
2
  6
CONTINUOUS
 90
2
 70
0
 43
0.4999999847
 10
34.0
 20
377.0
 10
40.0
 20
377.0
  0
LWPOLYLINE
  5
46A
100
AcDbEntity
  8
0
100
AcDbPolyline
 62
7
  6
CONTINUOUS
 90
2
 70
0
 43
0.9999999695
 10
40.0
 20
397.0
 10
30.0
 20
397.0
  0
LWPOLYLINE
  5
46B
100
AcDbEntity
  8
0
100
AcDbPolyline
 62
7
  6
CONTINUOUS
 90
2
 70
0
 43
0.9999999695
 10
400.0
 20
397.0
 10
410.0
 20
397.0
  0
LWPOLYLINE
  5
46C
100
AcDbEntity
  8
0
100
AcDbPolyline
 62
7
  6
CONTINUOUS
 90
2
 70
0
 43
0.9999999695
 10
320.0
 20
10.0
 10
320.0
 20
20.0
  0
LWPOLYLINE
  5
46D
100
AcDbEntity
  8
0
100
AcDbPolyline
 62
7
  6
CONTINUOUS
 90
2
 70
0
 43
0.9999999695
 10
320.0
 20
574.0
 10
320.0
 20
584.0
  0
LWPOLYLINE
  5
46E
100
AcDbEntity
  8
0
100
AcDbPolyline
 62
1
  6
CONTINUOUS
 90
2
 70
0
 43
0.0020194132
 10
268.2028495906
 20
74.7216847389
 10
268.3202070936
 20
75.2239039339
  0
LWPOLYLINE
  5
46F
100
AcDbEntity
  8
0
100
AcDbPolyline
 62
1
  6
CONTINUOUS
 90
2
 70
0
 43
0.0020194132
 10
273.1751411854
 20
83.6178525534
 10
273.0448830315
 20
83.0828642019
  0
LWPOLYLINE
  5
470
100
AcDbEntity
  8
0
100
AcDbPolyline
 62
1
  6
CONTINUOUS
 90
2
 70
0
 43
0.0020194132
 10
269.1530315401
 20
82.2780891452
 10
269.4138486157
 20
83.1049609405
  0
LWPOLYLINE
  5
471
100
AcDbEntity
  8
0
100
AcDbPolyline
 62
1
  6
CONTINUOUS
 90
2
 70
0
 43
0.0020194132
 10
251.9130158701
 20
77.5359113745
 10
252.1159439957
 20
78.17860524
  0
LWPOLYLINE
  5
472
100
AcDbEntity
  8
0
100
AcDbPolyline
 62
1
  6
CONTINUOUS
 90
2
 70
0
 43
0.0020194132
 10
265.1301530981
 20
83.2666546005
 10
264.9426285351
 20
82.720033746
  0
LWPOLYLINE
  5
473
100
AcDbEntity
  8
0
100
AcDbPolyline
 62
1
  6
CONTINUOUS
 90
2
 70
0
 43
0.0020194132
 10
256.9525267749
 20
73.1439751702
 10
256.7565013513
 20
72.6103115373
  0
LWPOLYLINE
  5
474
100
AcDbEntity
  8
0
100
AcDbPolyline
 62
1
  6
CONTINUOUS
 90
2
 70
0
 43
0.0020194132
 10
256.8028831236
 20
90.9934763656
 10
256.569931957
 20
90.3663479909
  0
LWPOLYLINE
  5
475
100
AcDbEntity
  8
0
100
AcDbPolyline
 62
1
  6
CONTINUOUS
 90
2
 70
0
 43
0.0020194132
 10
248.045545841
 20
83.9416721587
 10
247.2898855451
 20
81.93346839
  0
LWPOLYLINE
  5
476
100
AcDbEntity
  8
0
100
AcDbPolyline
 62
1
  6
CONTINUOUS
 90
2
 70
0
 43
0.0020194132
 10
247.6020291258
 20
73.9109688334
 10
247.1783680205
 20
72.8428668895
  0
LWPOLYLINE
  5
477
100
AcDbEntity
  8
0
100
AcDbPolyline
 62
1
  6
CONTINUOUS
 90
2
 70
0
 43
0.0020194132
 10
232.197087353
 20
72.9406842454
 10
232.6058437328
 20
73.9649447372
  0
LWPOLYLINE
  5
478
100
AcDbEntity
  8
0
100
AcDbPolyline
 62
1
  6
CONTINUOUS
 90
2
 70
0
 43
0.0020194132
 10
252.1159439957
 20
78.17860524
 10
252.3843540081
 20
78.8336711575
  0
LWPOLYLINE
  5
479
100
AcDbEntity
  8
0
100
AcDbPolyline
 62
1
  6
CONTINUOUS
 90
2
 70
0
 43
0.0020194132
 10
237.6706935547
 20
75.2115688848
 10
238.6455046876
 20
77.4860743438
  0
LWPOLYLINE
  5
47A
100
AcDbEntity
  8
0
100
AcDbPolyline
 62
1
  6
CONTINUOUS
 90
2
 70
0
 43
0.0020194132
 10
253.5112363646
 20
88.8389437403
 10
253.7412412056
 20
89.3691210642
  0
LWPOLYLINE
  5
47B
100
AcDbEntity
  8
0
100
AcDbPolyline
 62
1
  6
CONTINUOUS
 90
2
 70
0
 43
0.0020194132
 10
222.6132218563
 20
66.370820289
 10
223.6906191789
 20
68.5940326531
  0
LWPOLYLINE
  5
47C
100
AcDbEntity
  8
0
100
AcDbPolyline
 62
1
  6
CONTINUOUS
 90
2
 70
0
 43
0.0020194132
 10
236.4974968256
 20
74.5533929736
 10
236.1638795897
 20
73.8729710097
  0
LWPOLYLINE
  5
47D
100
AcDbEntity
  8
0
100
AcDbPolyline
 62
1
  6
CONTINUOUS
 90
2
 70
0
 43
0.0020194132
 10
210.8960583282
 20
74.1441036862
 10
209.8335243026
 20
72.0555358122
  0
LWPOLYLINE
  5
47E
100
AcDbEntity
  8
0
100
AcDbPolyline
 62
1
  6
CONTINUOUS
 90
2
 70
0
 43
0.0020194132
 10
230.2797327911
 20
69.8222983686
 10
230.6698657505
 20
70.5487607581
  0
LWPOLYLINE
  5
47F
100
AcDbEntity
  8
0
100
AcDbPolyline
 62
1
  6
CONTINUOUS
 90
2
 70
0
 43
0.0020194132
 10
231.6681090263
 20
76.6095682447
 10
230.1289930731
 20
73.830613372
  0
LWPOLYLINE
  5
480
100
AcDbEntity
  8
0
100
AcDbPolyline
 62
1
  6
CONTINUOUS
 90
2
 70
0
 43
0.0020194132
 10
224.4151038533
 20
75.6093125059
 10
220.1130267802
 20
68.0739933695
  0
LWPOLYLINE
  5
481
100
AcDbEntity
  8
0
100
AcDbPolyline
 62
1
  6
CONTINUOUS
 90
2
 70
0
 43
0.0020194132
 10
192.5446673271
 20
63.4723844976
 10
192.163986611
 20
62.8266103094
  0
LWPOLYLINE
  5
482
100
AcDbEntity
  8
0
100
AcDbPolyline
 62
1
  6
CONTINUOUS
 90
2
 70
0
 43
0.0020194132
 10
188.4329660827
 20
60.7792141336
 10
188.6143667524
 20
61.0842654043
  0
LWPOLYLINE
  5
483
100
AcDbEntity
  8
0
100
AcDbPolyline
 62
1
  6
CONTINUOUS
 90
2
 70
0
 43
0.0020194132
 10
188.4329660827
 20
60.7792141336
 10
188.8135143163
 20
61.4175181017
  0
LWPOLYLINE
  5
484
100
AcDbEntity
  8
0
100
AcDbPolyline
 62
1
  6
CONTINUOUS
 90
2
 70
0
 43
0.0020194132
 10
188.6143667524
 20
61.0842654043
 10
188.8135143163
 20
61.4175181017
  0
LWPOLYLINE
  5
485
100
AcDbEntity
  8
0
100
AcDbPolyline
 62
1
  6
CONTINUOUS
 90
2
 70
0
 43
0.0020194132
 10
214.5580823947
 20
70.340229229
 10
213.9753912378
 20
69.3671397813
  0
LWPOLYLINE
  5
486
100
AcDbEntity
  8
0
100
AcDbPolyline
 62
1
  6
CONTINUOUS
 90
2
 70
0
 43
0.0020194132
 10
217.9485682973
 20
70.0293440074
 10
218.412372302
 20
70.7985019151
  0
LWPOLYLINE
  5
487
100
AcDbEntity
  8
0
100
AcDbPolyline
 62
1
  6
CONTINUOUS
 90
2
 70
0
 43
0.0020194132
 10
192.163986611
 20
62.8266103094
 10
191.797918099
 20
62.2413437575
  0
LWPOLYLINE
  5
488
100
AcDbEntity
  8
0
100
AcDbPolyline
 62
1
  6
CONTINUOUS
 90
2
 70
0
 43
0.0020194132
 10
209.8335243026
 20
72.0555358122
 10
208.5204642249
 20
69.9755536015
  0
LWPOLYLINE
  5
489
100
AcDbEntity
  8
0
100
AcDbPolyline
 62
1
  6
CONTINUOUS
 90
2
 70
0
 43
0.0020194132
 10
205.1067674003
 20
69.4050289882
 10
206.1131078466
 20
70.9814039593
  0
LWPOLYLINE
  5
48A
100
AcDbEntity
  8
0
100
AcDbPolyline
 62
1
  6
CONTINUOUS
 90
2
 70
0
 43
0.0020194132
 10
209.8876877284
 20
89.4862352558
 10
207.3492045779
 20
85.5315780267
  0
LWPOLYLINE
  5
48B
100
AcDbEntity
  8
0
100
AcDbPolyline
 62
1
  6
CONTINUOUS
 90
2
 70
0
 43
0.0020194132
 10
202.8911480299
 20
87.1391924756
 10
203.9556211079
 20
88.7914763435
  0
LWPOLYLINE
  5
48C
100
AcDbEntity
  8
0
100
AcDbPolyline
 62
1
  6
CONTINUOUS
 90
2
 70
0
 43
0.0020194132
 10
204.6885873176
 20
81.82135057
 10
195.5366875388
 20
67.8596124657
  0
LWPOLYLINE
  5
48D
100
AcDbEntity
  8
0
100
AcDbPolyline
 62
1
  6
CONTINUOUS
 90
2
 70
0
 43
0.0020194132
 10
191.797918099
 20
62.2413437575
 10
191.4488954365
 20
61.7127092746
  0
LWPOLYLINE
  5
48E
100
AcDbEntity
  8
0
100
AcDbPolyline
 62
1
  6
CONTINUOUS
 90
2
 70
0
 43
0.0020194132
 10
182.2644086196
 20
59.2378360016
 10
181.98187537
 20
58.8218697982
  0
LWPOLYLINE
  5
48F
100
AcDbEntity
  8
0
100
AcDbPolyline
 62
1
  6
CONTINUOUS
 90
2
 70
0
 43
0.0020194132
 10
191.4488954365
 20
61.7127092746
 10
191.1181580396
 20
61.2361260262
  0
LWPOLYLINE
  5
490
100
AcDbEntity
  8
0
100
AcDbPolyline
 62
1
  6
CONTINUOUS
 90
2
 70
0
 43
0.0020194132
 10
176.1677245778
 20
57.9619644631
 10
176.7329358738
 20
58.7541944567
  0
LWPOLYLINE
  5
491
100
AcDbEntity
  8
0
100
AcDbPolyline
 62
1
  6
CONTINUOUS
 90
2
 70
0
 43
0.0020194132
 10
191.1181580396
 20
61.2361260262
 10
190.805817795
 20
60.8064185683
  0
LWPOLYLINE
  5
492
100
AcDbEntity
  8
0
100
AcDbPolyline
 62
1
  6
CONTINUOUS
 90
2
 70
0
 43
0.0020194132
 10
265.1821310318
 20
73.4962254091
 10
264.9861013601
 20
72.9625703693
  0
LWPOLYLINE
  5
493
100
AcDbEntity
  8
0
100
AcDbPolyline
 62
1
  6
CONTINUOUS
 90
2
 70
0
 43
0.0020194132
 10
263.0259637376
 20
72.5914502538
 10
263.3060646738
 20
73.3428480668
  0
LWPOLYLINE
  5
494
100
AcDbEntity
  8
0
100
AcDbPolyline
 62
1
  6
CONTINUOUS
 90
2
 70
0
 43
0.0020194132
 10
262.198180539
 20
73.2666005766
 10
261.6445471004
 20
71.9662354829
  0
LWPOLYLINE
  5
495
100
AcDbEntity
  8
0
100
AcDbPolyline
 62
1
  6
CONTINUOUS
 90
2
 70
0
 43
0.0020194132
 10
255.4320166963
 20
77.2752973673
 10
255.064868638
 20
76.4926784276
  0
LWPOLYLINE
  5
496
100
AcDbEntity
  8
0
100
AcDbPolyline
 62
1
  6
CONTINUOUS
 90
2
 70
0
 43
0.0020194132
 10
243.8470630793
 20
72.6636483209
 10
244.3181153517
 20
73.6649664141
  0
LWPOLYLINE
  5
497
100
AcDbEntity
  8
0
100
AcDbPolyline
 62
1
  6
CONTINUOUS
 90
2
 70
0
 43
0.0020194132
 10
254.5904961457
 20
72.3126735438
 10
254.9512167062
 20
73.0725428069
  0
LWPOLYLINE
  5
498
100
AcDbEntity
  8
0
100
AcDbPolyline
 62
1
  6
CONTINUOUS
 90
2
 70
0
 43
0.0020194132
 10
256.569931957
 20
90.3663479909
 10
256.2528287946
 20
89.702862533
  0
LWPOLYLINE
  5
499
100
AcDbEntity
  8
0
100
AcDbPolyline
 62
1
  6
CONTINUOUS
 90
2
 70
0
 43
0.0020194132
 10
261.0216528752
 20
82.0282192564
 10
261.4494370015
 20
82.9148723746
  0
LWPOLYLINE
  5
49A
100
AcDbEntity
  8
0
100
AcDbPolyline
 62
1
  6
CONTINUOUS
 90
2
 70
0
 43
0.0020194132
 10
273.0448830315
 20
83.0828642019
 10
272.7697446817
 20
82.5190657521
  0
LWPOLYLINE
  5
49B
100
AcDbEntity
  8
0
100
AcDbPolyline
 62
1
  6
CONTINUOUS
 90
2
 70
0
 43
0.0020194132
 10
235.0418214703
 20
65.8728329979
 10
237.2819969046
 20
70.250678454
  0
LWPOLYLINE
  5
49C
100
AcDbEntity
  8
0
100
AcDbPolyline
 62
1
  6
CONTINUOUS
 90
2
 70
0
 43
0.0020194132
 10
243.8850741381
 20
76.4158661321
 10
238.6963131232
 20
66.3873794773
  0
LWPOLYLINE
  5
49D
100
AcDbEntity
  8
0
100
AcDbPolyline
 62
1
  6
CONTINUOUS
 90
2
 70
0
 43
0.0020194132
 10
252.1120420607
 20
74.2663035995
 10
252.6159666563
 20
75.2339439828
  0
LWPOLYLINE
  5
49E
100
AcDbEntity
  8
0
100
AcDbPolyline
 62
1
  6
CONTINUOUS
 90
2
 70
0
 43
0.0020194132
 10
253.9264850371
 20
75.0676251131
 10
253.1098346754
 20
73.5177041218
  0
LWPOLYLINE
  5
49F
100
AcDbEntity
  8
0
100
AcDbPolyline
 62
1
  6
CONTINUOUS
 90
2
 70
0
 43
0.0020194132
 10
237.2168910234
 20
63.5559198621
 10
234.2980312055
 20
58.2083521945
  0
LWPOLYLINE
  5
4A0
100
AcDbEntity
  8
0
100
AcDbPolyline
 62
1
  6
CONTINUOUS
 90
2
 70
0
 43
0.0020194132
 10
236.1638795897
 20
73.8729710097
 10
235.7648215918
 20
73.1536044336
  0
LWPOLYLINE
  5
4A1
100
AcDbEntity
  8
0
100
AcDbPolyline
 62
1
  6
CONTINUOUS
 90
2
 70
0
 43
0.0020194132
 10
253.1949228322
 20
88.2759080963
 10
253.5112363646
 20
88.8389437403
  0
LWPOLYLINE
  5
4A2
100
AcDbEntity
  8
0
100
AcDbPolyline
 62
1
  6
CONTINUOUS
 90
2
 70
0
 43
0.0020194132
 10
256.2528287946
 20
89.702862533
 10
255.8573197731
 20
89.0044968585
  0
LWPOLYLINE
  5
4A3
100
AcDbEntity
  8
0
100
AcDbPolyline
 62
1
  6
CONTINUOUS
 90
2
 70
0
 43
0.0020194132
 10
249.255531432
 20
86.042321932
 10
248.045545841
 20
83.9416721587
  0
LWPOLYLINE
  5
4A4
100
AcDbEntity
  8
0
100
AcDbPolyline
 62
1
  6
CONTINUOUS
 90
2
 70
0
 43
0.0020194132
 10
234.2367393665
 20
70.6824657556
 10
233.6561001422
 20
69.6835464547
  0
LWPOLYLINE
  5
4A5
100
AcDbEntity
  8
0
100
AcDbPolyline
 62
1
  6
CONTINUOUS
 90
2
 70
0
 43
0.0020194132
 10
231.6809561729
 20
72.0705244249
 10
232.197087353
 20
72.9406842454
  0
LWPOLYLINE
  5
4A6
100
AcDbEntity
  8
0
100
AcDbPolyline
 62
1
  6
CONTINUOUS
 90
2
 70
0
 43
0.0020194132
 10
226.6558802006
 20
73.854856588
 10
228.1195154004
 20
76.2889662075
  0
LWPOLYLINE
  5
4A7
100
AcDbEntity
  8
0
100
AcDbPolyline
 62
1
  6
CONTINUOUS
 90
2
 70
0
 43
0.0020194132
 10
235.7648215918
 20
73.1536044336
 10
235.3056194641
 20
72.3906276671
  0
LWPOLYLINE
  5
4A8
100
AcDbEntity
  8
0
100
AcDbPolyline
 62
1
  6
CONTINUOUS
 90
2
 70
0
 43
0.0020194132
 10
252.3843540081
 20
78.8336711575
 10
252.7355356072
 20
79.4108652883
  0
LWPOLYLINE
  5
4A9
100
AcDbEntity
  8
0
100
AcDbPolyline
 62
1
  6
CONTINUOUS
 90
2
 70
0
 43
0.0020194132
 10
252.8417379315
 20
87.6956234868
 10
253.1949228322
 20
88.2759080963
  0
LWPOLYLINE
  5
4AA
100
AcDbEntity
  8
0
100
AcDbPolyline
 62
1
  6
CONTINUOUS
 90
2
 70
0
 43
0.0020194132
 10
230.1830325696
 20
57.9144064113
 10
233.4162746323
 20
63.1784511494
  0
LWPOLYLINE
  5
4AB
100
AcDbEntity
  8
0
100
AcDbPolyline
 62
1
  6
CONTINUOUS
 90
2
 70
0
 43
0.0020194132
 10
234.7925121514
 20
71.573645813
 10
234.2367393665
 20
70.6824657556
  0
LWPOLYLINE
  5
4AC
100
AcDbEntity
  8
0
100
AcDbPolyline
 62
1
  6
CONTINUOUS
 90
2
 70
0
 43
0.0020194132
 10
235.3056194641
 20
72.3906276671
 10
234.2367393665
 20
70.6824657556
  0
LWPOLYLINE
  5
4AD
100
AcDbEntity
  8
0
100
AcDbPolyline
 62
1
  6
CONTINUOUS
 90
2
 70
0
 43
0.0020194132
 10
235.3056194641
 20
72.3906276671
 10
234.7925121514
 20
71.573645813
  0
LWPOLYLINE
  5
4AE
100
AcDbEntity
  8
0
100
AcDbPolyline
 62
1
  6
CONTINUOUS
 90
2
 70
0
 43
0.0020194132
 10
241.5356080618
 20
77.5715359097
 10
243.980578059
 20
81.3983616407
  0
LWPOLYLINE
  5
4AF
100
AcDbEntity
  8
0
100
AcDbPolyline
 62
1
  6
CONTINUOUS
 90
2
 70
0
 43
0.0020194132
 10
230.6698657505
 20
70.5487607581
 10
231.1480894038
 20
71.2854479474
  0
LWPOLYLINE
  5
4B0
100
AcDbEntity
  8
0
100
AcDbPolyline
 62
1
  6
CONTINUOUS
 90
2
 70
0
 43
0.0020194132
 10
243.980578059
 20
81.3983616407
 10
246.2266004701
 20
84.8513234275
  0
LWPOLYLINE
  5
4B1
100
AcDbEntity
  8
0
100
AcDbPolyline
 62
1
  6
CONTINUOUS
 90
2
 70
0
 43
0.0020194132
 10
252.4528722096
 20
87.0996377464
 10
252.8417379315
 20
87.6956234868
  0
LWPOLYLINE
  5
4B2
100
AcDbEntity
  8
0
100
AcDbPolyline
 62
1
  6
CONTINUOUS
 90
2
 70
0
 43
0.0020194132
 10
231.1480894038
 20
71.2854479474
 10
231.6809561729
 20
72.0705244249
  0
LWPOLYLINE
  5
4B3
100
AcDbEntity
  8
0
100
AcDbPolyline
 62
1
  6
CONTINUOUS
 90
2
 70
0
 43
0.0020194132
 10
217.4641242662
 20
69.3574843168
 10
217.9485682973
 20
70.0293440074
  0
LWPOLYLINE
  5
4B4
100
AcDbEntity
  8
0
100
AcDbPolyline
 62
1
  6
CONTINUOUS
 90
2
 70
0
 43
0.0020194132
 10
227.5878891482
 20
69.2346418857
 10
225.5204498545
 20
66.4734064788
  0
LWPOLYLINE
  5
4B5
100
AcDbEntity
  8
0
100
AcDbPolyline
 62
1
  6
CONTINUOUS
 90
2
 70
0
 43
0.0020194132
 10
190.805817795
 20
60.8064185683
 10
190.5111563424
 20
60.4189726213
  0
LWPOLYLINE
  5
4B6
100
AcDbEntity
  8
0
100
AcDbPolyline
 62
1
  6
CONTINUOUS
 90
2
 70
0
 43
0.0020194132
 10
190.5111563424
 20
60.4189726213
 10
190.226910185
 20
60.0738159266
  0
LWPOLYLINE
  5
4B7
100
AcDbEntity
  8
0
100
AcDbPolyline
 62
1
  6
CONTINUOUS
 90
2
 70
0
 43
0.0020194132
 10
182.6214484041
 20
59.6568121464
 10
182.2644086196
 20
59.2378360016
  0
LWPOLYLINE
  5
4B8
100
AcDbEntity
  8
0
100
AcDbPolyline
 62
1
  6
CONTINUOUS
 90
2
 70
0
 43
0.0020194132
 10
215.3955703166
 20
71.3219584842
 10
214.5580823947
 20
70.340229229
  0
LWPOLYLINE
  5
4B9
100
AcDbEntity
  8
0
100
AcDbPolyline
 62
1
  6
CONTINUOUS
 90
2
 70
0
 43
0.0020194132
 10
204.6885873176
 20
81.82135057
 10
191.4551303851
 20
66.4926312923
  0
LWPOLYLINE
  5
4BA
100
AcDbEntity
  8
0
100
AcDbPolyline
 62
1
  6
CONTINUOUS
 90
2
 70
0
 43
0.0020194132
 10
210.7650823691
 20
70.0290276624
 10
211.9912627664
 20
71.4494336943
  0
LWPOLYLINE
  5
4BB
100
AcDbEntity
  8
0
100
AcDbPolyline
 62
1
  6
CONTINUOUS
 90
2
 70
0
 43
0.0020194132
 10
190.226910185
 20
60.0738159266
 10
189.9412253117
 20
59.7702650426
  0
LWPOLYLINE
  5
4BC
100
AcDbEntity
  8
0
100
AcDbPolyline
 62
1
  6
CONTINUOUS
 90
2
 70
0
 43
0.0020194132
 10
176.7329358738
 20
58.7541944567
 10
177.4997153319
 20
59.5418028973
  0
LWPOLYLINE
  5
4BD
100
AcDbEntity
  8
0
100
AcDbPolyline
 62
1
  6
CONTINUOUS
 90
2
 70
0
 43
0.0020194132
 10
270.4648977562
 20
73.1265368828
 10
270.0431698513
 20
72.2396476758
  0
LWPOLYLINE
  5
4BE
100
AcDbEntity
  8
0
100
AcDbPolyline
 62
1
  6
CONTINUOUS
 90
2
 70
0
 43
0.0020194132
 10
269.4138486157
 20
83.1049609405
 10
269.7704348354
 20
83.7901011233
  0
LWPOLYLINE
  5
4BF
100
AcDbEntity
  8
0
100
AcDbPolyline
 62
1
  6
CONTINUOUS
 90
2
 70
0
 43
0.0020194132
 10
259.6737951136
 20
73.8736597595
 10
259.9732677508
 20
74.3694864542
  0
LWPOLYLINE
  5
4C0
100
AcDbEntity
  8
0
100
AcDbPolyline
 62
1
  6
CONTINUOUS
 90
2
 70
0
 43
0.0020194132
 10
267.9033745682
 20
74.2258676647
 10
268.2028495906
 20
74.7216847389
  0
LWPOLYLINE
  5
4C1
100
AcDbEntity
  8
0
100
AcDbPolyline
 62
1
  6
CONTINUOUS
 90
2
 70
0
 43
0.0020194132
 10
251.5835067279
 20
73.4243473565
 10
252.1120420607
 20
74.2663035995
  0
LWPOLYLINE
  5
4C2
100
AcDbEntity
  8
0
100
AcDbPolyline
 62
1
  6
CONTINUOUS
 90
2
 70
0
 43
0.0020194132
 10
264.9426285351
 20
82.720033746
 10
264.5895357363
 20
82.1591303057
  0
LWPOLYLINE
  5
4C3
100
AcDbEntity
  8
0
100
AcDbPolyline
 62
1
  6
CONTINUOUS
 90
2
 70
0
 43
0.0020194132
 10
248.2887993242
 20
74.9907341597
 10
247.6020291258
 20
73.9109688334
  0
LWPOLYLINE
  5
4C4
100
AcDbEntity
  8
0
100
AcDbPolyline
 62
1
  6
CONTINUOUS
 90
2
 70
0
 43
0.0020194132
 10
263.3060646738
 20
73.3428480668
 10
263.7901498471
 20
74.0937213156
  0
LWPOLYLINE
  5
4C5
100
AcDbEntity
  8
0
100
AcDbPolyline
 62
1
  6
CONTINUOUS
 90
2
 70
0
 43
0.0020194132
 10
255.8573197731
 20
89.0044968585
 10
255.3818657976
 20
88.2736460688
  0
LWPOLYLINE
  5
4C6
100
AcDbEntity
  8
0
100
AcDbPolyline
 62
1
  6
CONTINUOUS
 90
2
 70
0
 43
0.0020194132
 10
244.3181153517
 20
73.6649664141
 10
245.0097305271
 20
74.7229426497
  0
LWPOLYLINE
  5
4C7
100
AcDbEntity
  8
0
100
AcDbPolyline
 62
1
  6
CONTINUOUS
 90
2
 70
0
 43
0.0020194132
 10
257.3080320008
 20
73.6559613553
 10
256.9525267749
 20
73.1439751702
  0
LWPOLYLINE
  5
4C8
100
AcDbEntity
  8
0
100
AcDbPolyline
 62
1
  6
CONTINUOUS
 90
2
 70
0
 43
0.0020194132
 10
265.5376383874
 20
74.0082012115
 10
265.1821310318
 20
73.4962254091
  0
LWPOLYLINE
  5
4C9
100
AcDbEntity
  8
0
100
AcDbPolyline
 62
1
  6
CONTINUOUS
 90
2
 70
0
 43
0.0020194132
 10
252.0059326903
 20
86.4785003175
 10
252.4528722096
 20
87.0996377464
  0
LWPOLYLINE
  5
4CA
100
AcDbEntity
  8
0
100
AcDbPolyline
 62
1
  6
CONTINUOUS
 90
2
 70
0
 43
0.0020194132
 10
246.2266004701
 20
84.8513234275
 10
248.4320536024
 20
87.8733566725
  0
LWPOLYLINE
  5
4CB
100
AcDbEntity
  8
0
100
AcDbPolyline
 62
1
  6
CONTINUOUS
 90
2
 70
0
 43
0.0020194132
 10
255.3818657976
 20
88.2736460688
 10
254.8227964137
 20
87.5087687141
  0
LWPOLYLINE
  5
4CC
100
AcDbEntity
  8
0
100
AcDbPolyline
 62
1
  6
CONTINUOUS
 90
2
 70
0
 43
0.0020194132
 10
253.1098346754
 20
73.5177041218
 10
252.1621592543
 20
72.243424609
  0
LWPOLYLINE
  5
4CD
100
AcDbEntity
  8
0
100
AcDbPolyline
 62
1
  6
CONTINUOUS
 90
2
 70
0
 43
0.0020194132
 10
250.6918024971
 20
87.967339335
 10
249.255531432
 20
86.042321932
  0
LWPOLYLINE
  5
4CE
100
AcDbEntity
  8
0
100
AcDbPolyline
 62
1
  6
CONTINUOUS
 90
2
 70
0
 43
0.0020194132
 10
251.0411029004
 20
72.7069063094
 10
251.5835067279
 20
73.4243473565
  0
LWPOLYLINE
  5
4CF
100
AcDbEntity
  8
0
100
AcDbPolyline
 62
1
  6
CONTINUOUS
 90
2
 70
0
 43
0.0020194132
 10
261.4494370015
 20
82.9148723746
 10
261.9891272458
 20
83.6253095681
  0
LWPOLYLINE
  5
4D0
100
AcDbEntity
  8
0
100
AcDbPolyline
 62
1
  6
CONTINUOUS
 90
2
 70
0
 43
0.0020194132
 10
254.9512167062
 20
73.0725428069
 10
255.5112070484
 20
73.8040404528
  0
LWPOLYLINE
  5
4D1
100
AcDbEntity
  8
0
100
AcDbPolyline
 62
1
  6
CONTINUOUS
 90
2
 70
0
 43
0.0020194132
 10
224.9631495417
 20
71.7004718803
 10
226.6558802006
 20
73.854856588
  0
LWPOLYLINE
  5
4D2
100
AcDbEntity
  8
0
100
AcDbPolyline
 62
1
  6
CONTINUOUS
 90
2
 70
0
 43
0.0020194132
 10
254.8227964137
 20
87.5087687141
 10
254.1770215372
 20
86.7043981204
  0
LWPOLYLINE
  5
4D3
100
AcDbEntity
  8
0
100
AcDbPolyline
 62
1
  6
CONTINUOUS
 90
2
 70
0
 43
0.0020194132
 10
239.6209475564
 20
74.4314838594
 10
240.3897930203
 20
75.3825727935
  0
LWPOLYLINE
  5
4D4
100
AcDbEntity
  8
0
100
AcDbPolyline
 62
1
  6
CONTINUOUS
 90
2
 70
0
 43
0.0020194132
 10
251.4618293384
 20
85.8128791931
 10
252.0059326903
 20
86.4785003175
  0
LWPOLYLINE
  5
4D5
100
AcDbEntity
  8
0
100
AcDbPolyline
 62
1
  6
CONTINUOUS
 90
2
 70
0
 43
0.0020194132
 10
245.0097305271
 20
74.7229426497
 10
245.8519823948
 20
75.7404404347
  0
LWPOLYLINE
  5
4D6
100
AcDbEntity
  8
0
100
AcDbPolyline
 62
1
  6
CONTINUOUS
 90
2
 70
0
 43
0.0020194132
 10
216.989603723
 20
68.7860501763
 10
217.4641242662
 20
69.3574843168
  0
LWPOLYLINE
  5
4D7
100
AcDbEntity
  8
0
100
AcDbPolyline
 62
1
  6
CONTINUOUS
 90
2
 70
0
 43
0.0020194132
 10
254.1770215372
 20
86.7043981204
 10
253.4369855175
 20
85.8587283041
  0
LWPOLYLINE
  5
4D8
100
AcDbEntity
  8
0
100
AcDbPolyline
 62
1
  6
CONTINUOUS
 90
2
 70
0
 43
0.0020194132
 10
249.2407916364
 20
76.0778167522
 10
248.2887993242
 20
74.9907341597
  0
LWPOLYLINE
  5
4D9
100
AcDbEntity
  8
0
100
AcDbPolyline
 62
1
  6
CONTINUOUS
 90
2
 70
0
 43
0.0020194132
 10
248.4320536024
 20
87.8733566725
 10
250.6804357205
 20
90.3828374781
  0
LWPOLYLINE
  5
4DA
100
AcDbEntity
  8
0
100
AcDbPolyline
 62
1
  6
CONTINUOUS
 90
2
 70
0
 43
0.0020194132
 10
238.8809419751
 20
73.6062561751
 10
239.6209475564
 20
74.4314838594
  0
LWPOLYLINE
  5
4DB
100
AcDbEntity
  8
0
100
AcDbPolyline
 62
1
  6
CONTINUOUS
 90
2
 70
0
 43
0.0020194132
 10
211.9912627664
 20
71.4494336943
 10
213.1570934455
 20
72.7189348392
  0
LWPOLYLINE
  5
4DC
100
AcDbEntity
  8
0
100
AcDbPolyline
 62
1
  6
CONTINUOUS
 90
2
 70
0
 43
0.0020194132
 10
207.3797381053
 20
68.2793273023
 10
204.4562625371
 20
65.132234729
  0
LWPOLYLINE
  5
4DD
100
AcDbEntity
  8
0
100
AcDbPolyline
 62
1
  6
CONTINUOUS
 90
2
 70
0
 43
0.0020194132
 10
250.8105796518
 20
85.1140597034
 10
251.4618293384
 20
85.8128791931
  0
LWPOLYLINE
  5
4DE
100
AcDbEntity
  8
0
100
AcDbPolyline
 62
1
  6
CONTINUOUS
 90
2
 70
0
 43
0.0020194132
 10
252.1435341001
 20
89.5225106234
 10
250.6918024971
 20
87.967339335
  0
LWPOLYLINE
  5
4DF
100
AcDbEntity
  8
0
100
AcDbPolyline
 62
1
  6
CONTINUOUS
 90
2
 70
0
 43
0.0020194132
 10
216.5295823528
 20
68.2979024693
 10
216.989603723
 20
68.7860501763
  0
LWPOLYLINE
  5
4E0
100
AcDbEntity
  8
0
100
AcDbPolyline
 62
1
  6
CONTINUOUS
 90
2
 70
0
 43
0.0020194132
 10
229.9375753985
 20
71.7212228096
 10
227.5878891482
 20
69.2346418857
  0
LWPOLYLINE
  5
4E1
100
AcDbEntity
  8
0
100
AcDbPolyline
 62
1
  6
CONTINUOUS
 90
2
 70
0
 43
0.0020194132
 10
200.477805193
 20
64.15027797
 10
203.6298493729
 20
67.4403015119
  0
LWPOLYLINE
  5
4E2
100
AcDbEntity
  8
0
100
AcDbPolyline
 62
1
  6
CONTINUOUS
 90
2
 70
0
 43
0.0020194132
 10
220.0906516822
 20
74.2241566138
 10
220.9413900688
 20
75.1015512545
  0
LWPOLYLINE
  5
4E3
100
AcDbEntity
  8
0
100
AcDbPolyline
 62
1
  6
CONTINUOUS
 90
2
 70
0
 43
0.0020194132
 10
223.0090867164
 20
69.7730282734
 10
224.9631495417
 20
71.7004718803
  0
LWPOLYLINE
  5
4E4
100
AcDbEntity
  8
0
100
AcDbPolyline
 62
1
  6
CONTINUOUS
 90
2
 70
0
 43
0.0020194132
 10
183.0461989603
 20
60.0698944453
 10
182.6214484041
 20
59.6568121464
  0
LWPOLYLINE
  5
4E5
100
AcDbEntity
  8
0
100
AcDbPolyline
 62
1
  6
CONTINUOUS
 90
2
 70
0
 43
0.0020194132
 10
216.0855821781
 20
67.8776351348
 10
216.5295823528
 20
68.2979024693
  0
LWPOLYLINE
  5
4E6
100
AcDbEntity
  8
0
100
AcDbPolyline
 62
1
  6
CONTINUOUS
 90
2
 70
0
 43
0.0020194132
 10
216.4476358416
 20
72.2814705041
 10
215.3955703166
 20
71.3219584842
  0
LWPOLYLINE
  5
4E7
100
AcDbEntity
  8
0
100
AcDbPolyline
 62
1
  6
CONTINUOUS
 90
2
 70
0
 43
0.0020194132
 10
189.9412253117
 20
59.7702650426
 10
189.6480465593
 20
59.5076676247
  0
LWPOLYLINE
  5
4E8
100
AcDbEntity
  8
0
100
AcDbPolyline
 62
1
  6
CONTINUOUS
 90
2
 70
0
 43
0.0020194132
 10
213.1570934455
 20
72.7189348392
 10
214.3158333092
 20
73.7476709987
  0
LWPOLYLINE
  5
4E9
100
AcDbEntity
  8
0
100
AcDbPolyline
 62
1
  6
CONTINUOUS
 90
2
 70
0
 43
0.0020194132
 10
204.4562625371
 20
65.132234729
 10
201.611203954
 20
62.6557168287
  0
LWPOLYLINE
  5
4EA
100
AcDbEntity
  8
0
100
AcDbPolyline
 62
1
  6
CONTINUOUS
 90
2
 70
0
 43
0.0020194132
 10
177.4997153319
 20
59.5418028973
 10
178.4070366728
 20
60.3209369569
  0
LWPOLYLINE
  5
4EB
100
AcDbEntity
  8
0
100
AcDbPolyline
 62
1
  6
CONTINUOUS
 90
2
 70
0
 43
0.0020194132
 10
183.5383615702
 20
60.4767127684
 10
183.0461989603
 20
60.0698944453
  0
LWPOLYLINE
  5
4EC
100
AcDbEntity
  8
0
100
AcDbPolyline
 62
1
  6
CONTINUOUS
 90
2
 70
0
 43
0.0020194132
 10
178.4070366728
 20
60.3209369569
 10
179.4237978361
 20
61.0964993024
  0
LWPOLYLINE
  5
4ED
100
AcDbEntity
  8
0
100
AcDbPolyline
 62
7
  6
CONTINUOUS
 90
2
 70
0
 43
0.9999999695
 10
400.0
 20
20.0
 10
400.0
 20
574.0
  0
LWPOLYLINE
  5
4EE
100
AcDbEntity
  8
0
100
AcDbPolyline
 62
1
  6
CONTINUOUS
 90
2
 70
0
 43
0.0020194132
 10
272.7697446817
 20
82.5190657521
 10
272.3497834961
 20
81.9269077734
  0
LWPOLYLINE
  5
4EF
100
AcDbEntity
  8
0
100
AcDbPolyline
 62
1
  6
CONTINUOUS
 90
2
 70
0
 43
0.0020194132
 10
261.6445471004
 20
71.9662354829
 10
260.8696016426
 20
70.9287668868
  0
LWPOLYLINE
  5
4F0
100
AcDbEntity
  8
0
100
AcDbPolyline
 62
1
  6
CONTINUOUS
 90
2
 70
0
 43
0.0020194132
 10
269.7704348354
 20
83.7901011233
 10
270.2049008501
 20
84.3274304337
  0
LWPOLYLINE
  5
4F1
100
AcDbEntity
  8
0
100
AcDbPolyline
 62
1
  6
CONTINUOUS
 90
2
 70
0
 43
0.0020194132
 10
262.9557509415
 20
80.4707429507
 10
262.4855658815
 20
79.921325092
  0
LWPOLYLINE
  5
4F2
100
AcDbEntity
  8
0
100
AcDbPolyline
 62
1
  6
CONTINUOUS
 90
2
 70
0
 43
0.0020194132
 10
264.5895357363
 20
82.1591303057
 10
264.1140264094
 20
81.6063279845
  0
LWPOLYLINE
  5
4F3
100
AcDbEntity
  8
0
100
AcDbPolyline
 62
1
  6
CONTINUOUS
 90
2
 70
0
 43
0.0020194132
 10
259.2355769044
 20
73.3685039347
 10
259.6737951136
 20
73.8736597595
  0
LWPOLYLINE
  5
4F4
100
AcDbEntity
  8
0
100
AcDbPolyline
 62
1
  6
CONTINUOUS
 90
2
 70
0
 43
0.0020194132
 10
267.4651556799
 20
73.7207233532
 10
267.9033745682
 20
74.2258676647
  0
LWPOLYLINE
  5
4F5
100
AcDbEntity
  8
0
100
AcDbPolyline
 62
1
  6
CONTINUOUS
 90
2
 70
0
 43
0.0020194132
 10
272.3497834961
 20
81.9269077734
 10
271.7775143513
 20
81.2896625333
  0
LWPOLYLINE
  5
4F6
100
AcDbEntity
  8
0
100
AcDbPolyline
 62
1
  6
CONTINUOUS
 90
2
 70
0
 43
0.0020194132
 10
270.0431698513
 20
72.2396476758
 10
269.3745788346
 20
71.5042892408
  0
LWPOLYLINE
  5
4F7
100
AcDbEntity
  8
0
100
AcDbPolyline
 62
1
  6
CONTINUOUS
 90
2
 70
0
 43
0.0020194132
 10
250.4928603296
 20
72.1048346367
 10
251.0411029004
 20
72.7069063094
  0
LWPOLYLINE
  5
4F8
100
AcDbEntity
  8
0
100
AcDbPolyline
 62
1
  6
CONTINUOUS
 90
2
 70
0
 43
0.0020194132
 10
252.1621592543
 20
72.243424609
 10
251.1699616022
 20
71.189748605
  0
LWPOLYLINE
  5
4F9
100
AcDbEntity
  8
0
100
AcDbPolyline
 62
1
  6
CONTINUOUS
 90
2
 70
0
 43
0.0020194132
 10
258.7615040437
 20
72.8649552519
 10
259.2355769044
 20
73.3685039347
  0
LWPOLYLINE
  5
4FA
100
AcDbEntity
  8
0
100
AcDbPolyline
 62
1
  6
CONTINUOUS
 90
2
 70
0
 43
0.0020194132
 10
266.9910827033
 20
73.2171866719
 10
267.4651556799
 20
73.7207233532
  0
LWPOLYLINE
  5
4FB
100
AcDbEntity
  8
0
100
AcDbPolyline
 62
1
  6
CONTINUOUS
 90
2
 70
0
 43
0.0020194132
 10
253.4369855175
 20
85.8587283041
 10
252.5925520571
 20
84.9717539572
  0
LWPOLYLINE
  5
4FC
100
AcDbEntity
  8
0
100
AcDbPolyline
 62
1
  6
CONTINUOUS
 90
2
 70
0
 43
0.0020194132
 10
263.7901498471
 20
74.0937213156
 10
264.475173905
 20
74.808457485
  0
LWPOLYLINE
  5
4FD
100
AcDbEntity
  8
0
100
AcDbPolyline
 62
1
  6
CONTINUOUS
 90
2
 70
0
 43
0.0020194132
 10
238.1783135203
 20
72.8772572611
 10
238.8809419751
 20
73.6062561751
  0
LWPOLYLINE
  5
4FE
100
AcDbEntity
  8
0
100
AcDbPolyline
 62
1
  6
CONTINUOUS
 90
2
 70
0
 43
0.0020194132
 10
252.7355356072
 20
79.4108652883
 10
253.1764306497
 20
79.8612766987
  0
LWPOLYLINE
  5
4FF
100
AcDbEntity
  8
0
100
AcDbPolyline
 62
1
  6
CONTINUOUS
 90
2
 70
0
 43
0.0020194132
 10
271.1360448294
 20
80.661760216
 10
270.5551409701
 20
80.0832820297
  0
LWPOLYLINE
  5
500
100
AcDbEntity
  8
0
100
AcDbPolyline
 62
1
  6
CONTINUOUS
 90
2
 70
0
 43
0.0020194132
 10
264.1140264094
 20
81.6063279845
 10
263.5403132531
 20
81.0375327143
  0
LWPOLYLINE
  5
501
100
AcDbEntity
  8
0
100
AcDbPolyline
 62
1
  6
CONTINUOUS
 90
2
 70
0
 43
0.0020194132
 10
245.8519823948
 20
75.7404404347
 10
246.7068405699
 20
76.5868700403
  0
LWPOLYLINE
  5
502
100
AcDbEntity
  8
0
100
AcDbPolyline
 62
1
  6
CONTINUOUS
 90
2
 70
0
 43
0.0020194132
 10
237.5163574963
 20
72.2227647681
 10
238.1783135203
 20
72.8772572611
  0
LWPOLYLINE
  5
503
100
AcDbEntity
  8
0
100
AcDbPolyline
 62
1
  6
CONTINUOUS
 90
2
 70
0
 43
0.0020194132
 10
271.7775143513
 20
81.2896625333
 10
271.1360448294
 20
80.661760216
  0
LWPOLYLINE
  5
504
100
AcDbEntity
  8
0
100
AcDbPolyline
 62
1
  6
CONTINUOUS
 90
2
 70
0
 43
0.0020194132
 10
263.5403132531
 20
81.0375327143
 10
262.9557509415
 20
80.4707429507
  0
LWPOLYLINE
  5
505
100
AcDbEntity
  8
0
100
AcDbPolyline
 62
1
  6
CONTINUOUS
 90
2
 70
0
 43
0.0020194132
 10
252.5925520571
 20
84.9717539572
 10
251.6349882936
 20
84.0449630162
  0
LWPOLYLINE
  5
506
100
AcDbEntity
  8
0
100
AcDbPolyline
 62
1
  6
CONTINUOUS
 90
2
 70
0
 43
0.0020194132
 10
250.0665506879
 20
84.3942337485
 10
250.8105796518
 20
85.1140597034
  0
LWPOLYLINE
  5
507
100
AcDbEntity
  8
0
100
AcDbPolyline
 62
1
  6
CONTINUOUS
 90
2
 70
0
 43
0.0020194132
 10
255.5112070484
 20
73.8040404528
 10
256.2308852034
 20
74.4893935338
  0
LWPOLYLINE
  5
508
100
AcDbEntity
  8
0
100
AcDbPolyline
 62
1
  6
CONTINUOUS
 90
2
 70
0
 43
0.0020194132
 10
236.8915477618
 20
71.6400133376
 10
237.5163574963
 20
72.2227647681
  0
LWPOLYLINE
  5
509
100
AcDbEntity
  8
0
100
AcDbPolyline
 62
1
  6
CONTINUOUS
 90
2
 70
0
 43
0.0020194132
 10
257.8146804203
 20
74.1278798209
 10
257.3080320008
 20
73.6559613553
  0
LWPOLYLINE
  5
50A
100
AcDbEntity
  8
0
100
AcDbPolyline
 62
1
  6
CONTINUOUS
 90
2
 70
0
 43
0.0020194132
 10
259.4029243006
 20
78.5132169715
 10
260.9144624233
 20
79.909854825
  0
LWPOLYLINE
  5
50B
100
AcDbEntity
  8
0
100
AcDbPolyline
 62
1
  6
CONTINUOUS
 90
2
 70
0
 43
0.0020194132
 10
250.4091283361
 20
77.1502293965
 10
249.2407916364
 20
76.0778167522
  0
LWPOLYLINE
  5
50C
100
AcDbEntity
  8
0
100
AcDbPolyline
 62
1
  6
CONTINUOUS
 90
2
 70
0
 43
0.0020194132
 10
258.2687926674
 20
72.4126423665
 10
258.7615040437
 20
72.8649552519
  0
LWPOLYLINE
  5
50D
100
AcDbEntity
  8
0
100
AcDbPolyline
 62
1
  6
CONTINUOUS
 90
2
 70
0
 43
0.0020194132
 10
249.9458604756
 20
71.607026043
 10
250.4928603296
 20
72.1048346367
  0
LWPOLYLINE
  5
50E
100
AcDbEntity
  8
0
100
AcDbPolyline
 62
1
  6
CONTINUOUS
 90
2
 70
0
 43
0.0020194132
 10
249.2260373941
 20
83.6369030319
 10
250.0665506879
 20
84.3942337485
  0
LWPOLYLINE
  5
50F
100
AcDbEntity
  8
0
100
AcDbPolyline
 62
1
  6
CONTINUOUS
 90
2
 70
0
 43
0.0020194132
 10
251.6349882936
 20
84.0449630162
 10
250.5570568498
 20
83.0774203247
  0
LWPOLYLINE
  5
510
100
AcDbEntity
  8
0
100
AcDbPolyline
 62
1
  6
CONTINUOUS
 90
2
 70
0
 43
0.0020194132
 10
251.1699616022
 20
71.189748605
 10
250.1917766352
 20
70.3131239619
  0
LWPOLYLINE
  5
511
100
AcDbEntity
  8
0
100
AcDbPolyline
 62
1
  6
CONTINUOUS
 90
2
 70
0
 43
0.0020194132
 10
247.2898855451
 20
81.93346839
 10
248.2889136335
 20
82.8199110167
  0
LWPOLYLINE
  5
512
100
AcDbEntity
  8
0
100
AcDbPolyline
 62
1
  6
CONTINUOUS
 90
2
 70
0
 43
0.0020194132
 10
248.2889136335
 20
82.8199110167
 10
249.2260373941
 20
83.6369030319
  0
LWPOLYLINE
  5
513
100
AcDbEntity
  8
0
100
AcDbPolyline
 62
1
  6
CONTINUOUS
 90
2
 70
0
 43
0.0020194132
 10
261.9891272458
 20
83.6253095681
 10
262.5912402372
 20
84.1479217616
  0
LWPOLYLINE
  5
514
100
AcDbEntity
  8
0
100
AcDbPolyline
 62
1
  6
CONTINUOUS
 90
2
 70
0
 43
0.0020194132
 10
215.6615412685
 20
67.5100629451
 10
216.0855821781
 20
67.8776351348
  0
LWPOLYLINE
  5
515
100
AcDbEntity
  8
0
100
AcDbPolyline
 62
1
  6
CONTINUOUS
 90
2
 70
0
 43
0.0020194132
 10
250.5570568498
 20
83.0774203247
 10
249.3534976261
 20
82.0598348813
  0
LWPOLYLINE
  5
516
100
AcDbEntity
  8
0
100
AcDbPolyline
 62
1
  6
CONTINUOUS
 90
2
 70
0
 43
0.0020194132
 10
250.6804357205
 20
90.3828374781
 10
252.9626456265
 20
92.3089730018
  0
LWPOLYLINE
  5
517
100
AcDbEntity
  8
0
100
AcDbPolyline
 62
1
  6
CONTINUOUS
 90
2
 70
0
 43
0.0020194132
 10
232.6058437328
 20
73.9649447372
 10
229.9375753985
 20
71.7212228096
  0
LWPOLYLINE
  5
518
100
AcDbEntity
  8
0
100
AcDbPolyline
 62
1
  6
CONTINUOUS
 90
2
 70
0
 43
0.0020194132
 10
246.5719905136
 20
79.8036932146
 10
245.015703192
 20
78.5062818851
  0
LWPOLYLINE
  5
519
100
AcDbEntity
  8
0
100
AcDbPolyline
 62
1
  6
CONTINUOUS
 90
2
 70
0
 43
0.0020194132
 10
236.2922199588
 20
71.1422560971
 10
236.8915477618
 20
71.6400133376
  0
LWPOLYLINE
  5
51A
100
AcDbEntity
  8
0
100
AcDbPolyline
 62
1
  6
CONTINUOUS
 90
2
 70
0
 43
0.0020194132
 10
215.2582238725
 20
67.1787794876
 10
215.6615412685
 20
67.5100629451
  0
LWPOLYLINE
  5
51B
100
AcDbEntity
  8
0
100
AcDbPolyline
 62
1
  6
CONTINUOUS
 90
2
 70
0
 43
0.0020194132
 10
249.3534976261
 20
82.0598348813
 10
248.0231877272
 20
80.9764945694
  0
LWPOLYLINE
  5
51C
100
AcDbEntity
  8
0
100
AcDbPolyline
 62
1
  6
CONTINUOUS
 90
2
 70
0
 43
0.0020194132
 10
251.7403490993
 20
78.2301877141
 10
250.4091283361
 20
77.1502293965
  0
LWPOLYLINE
  5
51D
100
AcDbEntity
  8
0
100
AcDbPolyline
 62
1
  6
CONTINUOUS
 90
2
 70
0
 43
0.0020194132
 10
248.0231877272
 20
80.9764945694
 10
246.5719905136
 20
79.8036932146
  0
LWPOLYLINE
  5
51E
100
AcDbEntity
  8
0
100
AcDbPolyline
 62
1
  6
CONTINUOUS
 90
2
 70
0
 43
0.0020194132
 10
231.6726439288
 20
75.0226615733
 10
232.3396561071
 20
75.5549565397
  0
LWPOLYLINE
  5
51F
100
AcDbEntity
  8
0
100
AcDbPolyline
 62
1
  6
CONTINUOUS
 90
2
 70
0
 43
0.0020194132
 10
197.0517153755
 20
61.4220026385
 10
200.477805193
 20
64.15027797
  0
LWPOLYLINE
  5
520
100
AcDbEntity
  8
0
100
AcDbPolyline
 62
1
  6
CONTINUOUS
 90
2
 70
0
 43
0.0020194132
 10
230.949260747
 20
74.4492916386
 10
232.3396561071
 20
75.5549565397
  0
LWPOLYLINE
  5
521
100
AcDbEntity
  8
0
100
AcDbPolyline
 62
1
  6
CONTINUOUS
 90
2
 70
0
 43
0.0020194132
 10
230.949260747
 20
74.4492916386
 10
231.6726439288
 20
75.0226615733
  0
LWPOLYLINE
  5
522
100
AcDbEntity
  8
0
100
AcDbPolyline
 62
1
  6
CONTINUOUS
 90
2
 70
0
 43
0.0020194132
 10
214.874967584
 20
66.8784989944
 10
215.2582238725
 20
67.1787794876
  0
LWPOLYLINE
  5
523
100
AcDbEntity
  8
0
100
AcDbPolyline
 62
1
  6
CONTINUOUS
 90
2
 70
0
 43
0.0020194132
 10
253.6435248617
 20
90.6903709498
 10
252.1435341001
 20
89.5225106234
  0
LWPOLYLINE
  5
524
100
AcDbEntity
  8
0
100
AcDbPolyline
 62
1
  6
CONTINUOUS
 90
2
 70
0
 43
0.0020194132
 10
232.3396561071
 20
75.5549565397
 10
232.9570152005
 20
76.034064286
  0
LWPOLYLINE
  5
525
100
AcDbEntity
  8
0
100
AcDbPolyline
 62
1
  6
CONTINUOUS
 90
2
 70
0
 43
0.0020194132
 10
220.7659434513
 20
68.0588881588
 10
223.0090867164
 20
69.7730282734
  0
LWPOLYLINE
  5
526
100
AcDbEntity
  8
0
100
AcDbPolyline
 62
1
  6
CONTINUOUS
 90
2
 70
0
 43
0.0020194132
 10
216.7556311949
 20
66.7504699682
 10
215.9042615216
 20
66.1035193405
  0
LWPOLYLINE
  5
527
100
AcDbEntity
  8
0
100
AcDbPolyline
 62
1
  6
CONTINUOUS
 90
2
 70
0
 43
0.0020194132
 10
217.7058054869
 20
73.2353711414
 10
216.4476358416
 20
72.2814705041
  0
LWPOLYLINE
  5
528
100
AcDbEntity
  8
0
100
AcDbPolyline
 62
1
  6
CONTINUOUS
 90
2
 70
0
 43
0.0020194132
 10
230.1289930731
 20
73.830613372
 10
230.949260747
 20
74.4492916386
  0
LWPOLYLINE
  5
529
100
AcDbEntity
  8
0
100
AcDbPolyline
 62
1
  6
CONTINUOUS
 90
2
 70
0
 43
0.0020194132
 10
222.2774138708
 20
67.6597482807
 10
221.6910789801
 20
67.2253158143
  0
LWPOLYLINE
  5
52A
100
AcDbEntity
  8
0
100
AcDbPolyline
 62
1
  6
CONTINUOUS
 90
2
 70
0
 43
0.0020194132
 10
235.7192339935
 20
70.7189432837
 10
236.2922199588
 20
71.1422560971
  0
LWPOLYLINE
  5
52B
100
AcDbEntity
  8
0
100
AcDbPolyline
 62
1
  6
CONTINUOUS
 90
2
 70
0
 43
0.0020194132
 10
189.6480465593
 20
59.5076676247
 10
189.3444149944
 20
59.2839662855
  0
LWPOLYLINE
  5
52C
100
AcDbEntity
  8
0
100
AcDbPolyline
 62
1
  6
CONTINUOUS
 90
2
 70
0
 43
0.0020194132
 10
232.9570152005
 20
76.034064286
 10
233.5401783201
 20
76.4634033066
  0
LWPOLYLINE
  5
52D
100
AcDbEntity
  8
0
100
AcDbPolyline
 62
1
  6
CONTINUOUS
 90
2
 70
0
 43
0.0020194132
 10
201.611203954
 20
62.6557168287
 10
198.8986647655
 20
60.6658190269
  0
LWPOLYLINE
  5
52E
100
AcDbEntity
  8
0
100
AcDbPolyline
 62
1
  6
CONTINUOUS
 90
2
 70
0
 43
0.0020194132
 10
184.1006506606
 20
60.8876064587
 10
183.5383615702
 20
60.4767127684
  0
LWPOLYLINE
  5
52F
100
AcDbEntity
  8
0
100
AcDbPolyline
 62
1
  6
CONTINUOUS
 90
2
 70
0
 43
0.0020194132
 10
221.6910789801
 20
67.2253158143
 10
221.1514700902
 20
66.8312946003
  0
LWPOLYLINE
  5
530
100
AcDbEntity
  8
0
100
AcDbPolyline
 62
1
  6
CONTINUOUS
 90
2
 70
0
 43
0.0020194132
 10
222.9198211905
 20
68.1130930575
 10
222.2774138708
 20
67.6597482807
  0
LWPOLYLINE
  5
531
100
AcDbEntity
  8
0
100
AcDbPolyline
 62
1
  6
CONTINUOUS
 90
2
 70
0
 43
0.0020194132
 10
221.1514700902
 20
66.8312946003
 10
220.6633782035
 20
66.4958486927
  0
LWPOLYLINE
  5
532
100
AcDbEntity
  8
0
100
AcDbPolyline
 62
1
  6
CONTINUOUS
 90
2
 70
0
 43
0.0020194132
 10
215.9042615216
 20
66.1035193405
 10
215.1174184339
 20
65.5684586458
  0
LWPOLYLINE
  5
533
100
AcDbEntity
  8
0
100
AcDbPolyline
 62
1
  6
CONTINUOUS
 90
2
 70
0
 43
0.0020194132
 10
184.740062459
 20
61.3209044214
 10
184.1006506606
 20
60.8876064587
  0
LWPOLYLINE
  5
534
100
AcDbEntity
  8
0
100
AcDbPolyline
 62
1
  6
CONTINUOUS
 90
2
 70
0
 43
0.0020194132
 10
179.4237978361
 20
61.0964993024
 10
180.57254753
 20
61.8674492153
  0
LWPOLYLINE
  5
535
100
AcDbEntity
  8
0
100
AcDbPolyline
 62
1
  6
CONTINUOUS
 90
2
 70
0
 43
0.0020194132
 10
233.5401783201
 20
76.4634033066
 10
234.1042730993
 20
76.8400981706
  0
LWPOLYLINE
  5
536
100
AcDbEntity
  8
0
100
AcDbPolyline
 62
1
  6
CONTINUOUS
 90
2
 70
0
 43
0.0020194132
 10
198.8986647655
 20
60.6658190269
 10
196.3443071905
 20
59.0352278013
  0
LWPOLYLINE
  5
537
100
AcDbEntity
  8
0
100
AcDbPolyline
 62
1
  6
CONTINUOUS
 90
2
 70
0
 43
0.0020194132
 10
214.3158333092
 20
73.7476709987
 10
215.4831067764
 20
74.4881130504
  0
LWPOLYLINE
  5
538
100
AcDbEntity
  8
0
100
AcDbPolyline
 62
1
  6
CONTINUOUS
 90
2
 70
0
 43
0.0020194132
 10
185.471178434
 20
61.7827701574
 10
184.740062459
 20
61.3209044214
  0
LWPOLYLINE
  5
539
100
AcDbEntity
  8
0
100
AcDbPolyline
 62
1
  6
CONTINUOUS
 90
2
 70
0
 43
0.0020194132
 10
252.9626456265
 20
92.3089730018
 10
255.2498468857
 20
93.6837875027
  0
LWPOLYLINE
  5
53A
100
AcDbEntity
  8
0
100
AcDbPolyline
 62
1
  6
CONTINUOUS
 90
2
 70
0
 43
0.0020194132
 10
193.5202861641
 20
59.3277875363
 10
197.0517153755
 20
61.4220026385
  0
LWPOLYLINE
  5
53B
100
AcDbEntity
  8
0
100
AcDbPolyline
 62
1
  6
CONTINUOUS
 90
2
 70
0
 43
0.0020194132
 10
180.57254753
 20
61.8674492153
 10
181.9218293397
 20
62.6527269418
  0
LWPOLYLINE
  5
53C
100
AcDbEntity
  8
0
100
AcDbPolyline
 62
1
  6
CONTINUOUS
 90
2
 70
0
 43
0.0020194132
 10
186.2956849707
 20
62.2604138664
 10
185.471178434
 20
61.7827701574
  0
LWPOLYLINE
  5
53D
100
AcDbEntity
  8
0
100
AcDbPolyline
 62
1
  6
CONTINUOUS
 90
2
 70
0
 43
0.0020194132
 10
189.3444149944
 20
59.2839662855
 10
189.0436420936
 20
59.1115137942
  0
LWPOLYLINE
  5
53E
100
AcDbEntity
  8
0
100
AcDbPolyline
 62
1
  6
CONTINUOUS
 90
2
 70
0
 43
0.0020194132
 10
187.183271121
 20
62.7223667915
 10
186.2956849707
 20
62.2604138664
  0
LWPOLYLINE
  5
53F
100
AcDbEntity
  8
0
100
AcDbPolyline
 62
1
  6
CONTINUOUS
 90
2
 70
0
 43
0.0020194132
 10
178.0816233976
 20
78.0465099839
 10
172.4681229581
 20
75.220454303
  0
LWPOLYLINE
  5
540
100
AcDbEntity
  8
0
100
AcDbPolyline
 62
1
  6
CONTINUOUS
 90
2
 70
0
 43
0.0020194132
 10
181.9218293397
 20
62.6527269418
 10
183.4446485857
 20
63.4152424434
  0
LWPOLYLINE
  5
541
100
AcDbEntity
  8
0
100
AcDbPolyline
 62
1
  6
CONTINUOUS
 90
2
 70
0
 43
0.0020194132
 10
183.3187326462
 20
80.3310519705
 10
178.0816233976
 20
78.0465099839
  0
LWPOLYLINE
  5
542
100
AcDbEntity
  8
0
100
AcDbPolyline
 62
1
  6
CONTINUOUS
 90
2
 70
0
 43
0.0020194132
 10
209.8876877284
 20
89.4862352558
 10
202.8911480299
 20
87.1391924756
  0
LWPOLYLINE
  5
543
100
AcDbEntity
  8
0
100
AcDbPolyline
 62
1
  6
CONTINUOUS
 90
2
 70
0
 43
0.0020194132
 10
188.1693984595
 20
81.9364958977
 10
183.3187326462
 20
80.3310519705
  0
LWPOLYLINE
  5
544
100
AcDbEntity
  8
0
100
AcDbPolyline
 62
1
  6
CONTINUOUS
 90
2
 70
0
 43
0.0020194132
 10
176.9105088593
 20
83.7712151648
 10
183.8154794554
 20
85.8753736679
  0
LWPOLYLINE
  5
545
100
AcDbEntity
  8
0
100
AcDbPolyline
 62
2
  6
CONTINUOUS
 90
2
 70
0
 43
0.4999999847
 10
410.0
 20
10.0
 10
410.0
 20
584.0
  0
LWPOLYLINE
  5
546
100
AcDbEntity
  8
0
100
AcDbPolyline
 62
2
  6
CONTINUOUS
 90
2
 70
0
 43
3.9999998779
 10
420.0
 20
20.0
 10
420.0
 20
0.0
  0
LWPOLYLINE
  5
547
100
AcDbEntity
  8
0
100
AcDbPolyline
 62
2
  6
CONTINUOUS
 90
2
 70
0
 43
3.9999998779
 10
420.0
 20
574.0
 10
420.0
 20
594.0
  0
LWPOLYLINE
  5
548
100
AcDbEntity
  8
0
100
AcDbPolyline
 62
1
  6
CONTINUOUS
 90
2
 70
0
 43
0.0020194132
 10
274.2378236311
 20
68.5279574535
 10
272.2228531547
 20
66.4877847006
  0
LWPOLYLINE
  5
549
100
AcDbEntity
  8
0
100
AcDbPolyline
 62
1
  6
CONTINUOUS
 90
2
 70
0
 43
0.0020194132
 10
266.0442865088
 20
74.4801077873
 10
265.5376383874
 20
74.0082012115
  0
LWPOLYLINE
  5
54A
100
AcDbEntity
  8
0
100
AcDbPolyline
 62
1
  6
CONTINUOUS
 90
2
 70
0
 43
0.0020194132
 10
266.4983720046
 20
72.7648852889
 10
266.9910827033
 20
73.2171866719
  0
LWPOLYLINE
  5
54B
100
AcDbEntity
  8
0
100
AcDbPolyline
 62
1
  6
CONTINUOUS
 90
2
 70
0
 43
0.0020194132
 10
270.2049008501
 20
84.3274304337
 10
270.6827950782
 20
84.7153242812
  0
LWPOLYLINE
  5
54C
100
AcDbEntity
  8
0
100
AcDbPolyline
 62
1
  6
CONTINUOUS
 90
2
 70
0
 43
0.0020194132
 10
250.1917766352
 20
70.3131239619
 10
249.2559322824
 20
69.5892899455
  0
LWPOLYLINE
  5
54D
100
AcDbEntity
  8
0
100
AcDbPolyline
 62
1
  6
CONTINUOUS
 90
2
 70
0
 43
0.0020194132
 10
264.475173905
 20
74.808457485
 10
265.3695529973
 20
75.4911033406
  0
LWPOLYLINE
  5
54E
100
AcDbEntity
  8
0
100
AcDbPolyline
 62
1
  6
CONTINUOUS
 90
2
 70
0
 43
0.0020194132
 10
260.8696016426
 20
70.9287668868
 10
259.9195597052
 20
70.205509174
  0
LWPOLYLINE
  5
54F
100
AcDbEntity
  8
0
100
AcDbPolyline
 62
1
  6
CONTINUOUS
 90
2
 70
0
 43
0.0020194132
 10
249.410925528
 20
71.2048731475
 10
249.9458604756
 20
71.607026043
  0
LWPOLYLINE
  5
550
100
AcDbEntity
  8
0
100
AcDbPolyline
 62
1
  6
CONTINUOUS
 90
2
 70
0
 43
0.0020194132
 10
256.2308852034
 20
74.4893935338
 10
257.1187813497
 20
75.1310098396
  0
LWPOLYLINE
  5
551
100
AcDbEntity
  8
0
100
AcDbPolyline
 62
1
  6
CONTINUOUS
 90
2
 70
0
 43
0.0020194132
 10
260.7157521658
 20
78.1116885484
 10
258.8860036443
 20
76.8091326697
  0
LWPOLYLINE
  5
552
100
AcDbEntity
  8
0
100
AcDbPolyline
 62
1
  6
CONTINUOUS
 90
2
 70
0
 43
0.0020194132
 10
236.3943935229
 20
69.6661500025
 10
235.6325807126
 20
69.1306243554
  0
LWPOLYLINE
  5
553
100
AcDbEntity
  8
0
100
AcDbPolyline
 62
1
  6
CONTINUOUS
 90
2
 70
0
 43
0.0020194132
 10
236.3943935229
 20
69.6661500025
 10
234.9490194568
 20
68.651301549
  0
LWPOLYLINE
  5
554
100
AcDbEntity
  8
0
100
AcDbPolyline
 62
1
  6
CONTINUOUS
 90
2
 70
0
 43
0.0020194132
 10
235.6325807126
 20
69.1306243554
 10
234.9490194568
 20
68.651301549
  0
LWPOLYLINE
  5
555
100
AcDbEntity
  8
0
100
AcDbPolyline
 62
1
  6
CONTINUOUS
 90
2
 70
0
 43
0.0020194132
 10
269.3745788346
 20
71.5042892408
 10
268.5576305595
 20
70.936718944
  0
LWPOLYLINE
  5
556
100
AcDbEntity
  8
0
100
AcDbPolyline
 62
1
  6
CONTINUOUS
 90
2
 70
0
 43
0.0020194132
 10
235.1780179853
 20
70.3463931546
 10
235.7192339935
 20
70.7189432837
  0
LWPOLYLINE
  5
557
100
AcDbEntity
  8
0
100
AcDbPolyline
 62
1
  6
CONTINUOUS
 90
2
 70
0
 43
0.0020194132
 10
257.7618520722
 20
77.3841318942
 10
259.4029243006
 20
78.5132169715
  0
LWPOLYLINE
  5
558
100
AcDbEntity
  8
0
100
AcDbPolyline
 62
1
  6
CONTINUOUS
 90
2
 70
0
 43
0.0020194132
 10
258.4595790107
 20
74.5637180151
 10
257.8146804203
 20
74.1278798209
  0
LWPOLYLINE
  5
559
100
AcDbEntity
  8
0
100
AcDbPolyline
 62
1
  6
CONTINUOUS
 90
2
 70
0
 43
0.0020194132
 10
266.6891824685
 20
74.9159327659
 10
266.0442865088
 20
74.4801077873
  0
LWPOLYLINE
  5
55A
100
AcDbEntity
  8
0
100
AcDbPolyline
 62
1
  6
CONTINUOUS
 90
2
 70
0
 43
0.0020194132
 10
234.9490194568
 20
68.651301549
 10
234.3111368472
 20
68.2288699858
  0
LWPOLYLINE
  5
55B
100
AcDbEntity
  8
0
100
AcDbPolyline
 62
1
  6
CONTINUOUS
 90
2
 70
0
 43
0.0020194132
 10
237.2819969046
 20
70.250678454
 10
236.3943935229
 20
69.6661500025
  0
LWPOLYLINE
  5
55C
100
AcDbEntity
  8
0
100
AcDbPolyline
 62
1
  6
CONTINUOUS
 90
2
 70
0
 43
0.0020194132
 10
234.664288552
 20
70.0179418474
 10
235.1780179853
 20
70.3463931546
  0
LWPOLYLINE
  5
55D
100
AcDbEntity
  8
0
100
AcDbPolyline
 62
1
  6
CONTINUOUS
 90
2
 70
0
 43
0.0020194132
 10
220.6633782035
 20
66.4958486927
 10
220.1978712717
 20
66.2028683441
  0
LWPOLYLINE
  5
55E
100
AcDbEntity
  8
0
100
AcDbPolyline
 62
1
  6
CONTINUOUS
 90
2
 70
0
 43
0.0020194132
 10
248.045545841
 20
83.9416721587
 10
243.980578059
 20
81.3983616407
  0
LWPOLYLINE
  5
55F
100
AcDbEntity
  8
0
100
AcDbPolyline
 62
1
  6
CONTINUOUS
 90
2
 70
0
 43
0.0020194132
 10
223.6906191789
 20
68.5940326531
 10
222.9198211905
 20
68.1130930575
  0
LWPOLYLINE
  5
560
100
AcDbEntity
  8
0
100
AcDbPolyline
 62
1
  6
CONTINUOUS
 90
2
 70
0
 43
0.0020194132
 10
267.7033934812
 20
76.8465931639
 10
268.9571389282
 20
77.6256561831
  0
LWPOLYLINE
  5
561
100
AcDbEntity
  8
0
100
AcDbPolyline
 62
1
  6
CONTINUOUS
 90
2
 70
0
 43
0.0020194132
 10
257.7646599681
 20
72.1008266794
 10
258.2687926674
 20
72.4126423665
  0
LWPOLYLINE
  5
562
100
AcDbEntity
  8
0
100
AcDbPolyline
 62
1
  6
CONTINUOUS
 90
2
 70
0
 43
0.0020194132
 10
265.9942416894
 20
72.4530793917
 10
266.4983720046
 20
72.7648852889
  0
LWPOLYLINE
  5
563
100
AcDbEntity
  8
0
100
AcDbPolyline
 62
1
  6
CONTINUOUS
 90
2
 70
0
 43
0.0020194132
 10
248.8906333089
 20
70.8834605306
 10
249.410925528
 20
71.2048731475
  0
LWPOLYLINE
  5
564
100
AcDbEntity
  8
0
100
AcDbPolyline
 62
1
  6
CONTINUOUS
 90
2
 70
0
 43
0.0020194132
 10
265.3695529973
 20
75.4911033406
 10
266.4653731757
 20
76.1594058177
  0
LWPOLYLINE
  5
565
100
AcDbEntity
  8
0
100
AcDbPolyline
 62
1
  6
CONTINUOUS
 90
2
 70
0
 43
0.0020194132
 10
253.1764306497
 20
79.8612766987
 10
253.6771834588
 20
80.1658702072
  0
LWPOLYLINE
  5
566
100
AcDbEntity
  8
0
100
AcDbPolyline
 62
1
  6
CONTINUOUS
 90
2
 70
0
 43
0.0020194132
 10
249.2559322824
 20
69.5892899455
 10
248.3462950351
 20
69.0404765867
  0
LWPOLYLINE
  5
567
100
AcDbEntity
  8
0
100
AcDbPolyline
 62
1
  6
CONTINUOUS
 90
2
 70
0
 43
0.0020194132
 10
234.3111368472
 20
68.2288699858
 10
233.7001580572
 20
67.8623588247
  0
LWPOLYLINE
  5
568
100
AcDbEntity
  8
0
100
AcDbPolyline
 62
1
  6
CONTINUOUS
 90
2
 70
0
 43
0.0020194132
 10
214.4996940111
 20
66.6545668178
 10
214.874967584
 20
66.8784989944
  0
LWPOLYLINE
  5
569
100
AcDbEntity
  8
0
100
AcDbPolyline
 62
1
  6
CONTINUOUS
 90
2
 70
0
 43
0.0020194132
 10
257.1187813497
 20
75.1310098396
 10
258.1780746888
 20
75.7413633821
  0
LWPOLYLINE
  5
56A
100
AcDbEntity
  8
0
100
AcDbPolyline
 62
1
  6
CONTINUOUS
 90
2
 70
0
 43
0.0020194132
 10
196.3443071905
 20
59.0352278013
 10
193.9667150678
 20
57.682184556
  0
LWPOLYLINE
  5
56B
100
AcDbEntity
  8
0
100
AcDbPolyline
 62
1
  6
CONTINUOUS
 90
2
 70
0
 43
0.0020194132
 10
220.1978712717
 20
66.2028683441
 10
219.738160813
 20
65.9423891203
  0
LWPOLYLINE
  5
56C
100
AcDbEntity
  8
0
100
AcDbPolyline
 62
1
  6
CONTINUOUS
 90
2
 70
0
 43
0.0020194132
 10
215.1174184339
 20
65.5684586458
 10
214.3533582388
 20
65.1408862373
  0
LWPOLYLINE
  5
56D
100
AcDbEntity
  8
0
100
AcDbPolyline
 62
1
  6
CONTINUOUS
 90
2
 70
0
 43
0.0020194132
 10
266.4653731757
 20
76.1594058177
 10
267.7033934812
 20
76.8465931639
  0
LWPOLYLINE
  5
56E
100
AcDbEntity
  8
0
100
AcDbPolyline
 62
1
  6
CONTINUOUS
 90
2
 70
0
 43
0.0020194132
 10
258.8860036443
 20
76.8091326697
 10
257.127594599
 20
75.8369835003
  0
LWPOLYLINE
  5
56F
100
AcDbEntity
  8
0
100
AcDbPolyline
 62
1
  6
CONTINUOUS
 90
2
 70
0
 43
0.0020194132
 10
259.2019019319
 20
74.9662812385
 10
258.4595790107
 20
74.5637180151
  0
LWPOLYLINE
  5
570
100
AcDbEntity
  8
0
100
AcDbPolyline
 62
1
  6
CONTINUOUS
 90
2
 70
0
 43
0.0020194132
 10
267.4315009462
 20
75.3184819734
 10
266.6891824685
 20
74.9159327659
  0
LWPOLYLINE
  5
571
100
AcDbEntity
  8
0
100
AcDbPolyline
 62
1
  6
CONTINUOUS
 90
2
 70
0
 43
0.0020194132
 10
264.1140264094
 20
81.6063279845
 10
260.9144624233
 20
79.909854825
  0
LWPOLYLINE
  5
572
100
AcDbEntity
  8
0
100
AcDbPolyline
 62
1
  6
CONTINUOUS
 90
2
 70
0
 43
0.0020194132
 10
233.7001580572
 20
67.8623588247
 10
233.1038395088
 20
67.5481005594
  0
LWPOLYLINE
  5
573
100
AcDbEntity
  8
0
100
AcDbPolyline
 62
1
  6
CONTINUOUS
 90
2
 70
0
 43
0.0020194132
 10
248.0231877272
 20
80.9764945694
 10
241.5356080618
 20
77.5715359097
  0
LWPOLYLINE
  5
574
100
AcDbEntity
  8
0
100
AcDbPolyline
 62
1
  6
CONTINUOUS
 90
2
 70
0
 43
0.0020194132
 10
262.5912402372
 20
84.1479217616
 10
263.202104778
 20
84.4638193542
  0
LWPOLYLINE
  5
575
100
AcDbEntity
  8
0
100
AcDbPolyline
 62
1
  6
CONTINUOUS
 90
2
 70
0
 43
0.0020194132
 10
270.6827950782
 20
84.7153242812
 10
271.1693430725
 20
84.9634057885
  0
LWPOLYLINE
  5
576
100
AcDbEntity
  8
0
100
AcDbPolyline
 62
1
  6
CONTINUOUS
 90
2
 70
0
 43
0.0020194132
 10
259.3928862071
 20
76.3501062655
 10
260.7157521658
 20
77.0172473788
  0
LWPOLYLINE
  5
577
100
AcDbEntity
  8
0
100
AcDbPolyline
 62
1
  6
CONTINUOUS
 90
2
 70
0
 43
0.0020194132
 10
193.9667150678
 20
57.682184556
 10
191.7503321438
 20
56.5652695409
  0
LWPOLYLINE
  5
578
100
AcDbEntity
  8
0
100
AcDbPolyline
 62
1
  6
CONTINUOUS
 90
2
 70
0
 43
0.0020194132
 10
258.1780746888
 20
75.7413633821
 10
260.7157521658
 20
77.0172473788
  0
LWPOLYLINE
  5
579
100
AcDbEntity
  8
0
100
AcDbPolyline
 62
1
  6
CONTINUOUS
 90
2
 70
0
 43
0.0020194132
 10
258.1780746888
 20
75.7413633821
 10
259.3928862071
 20
76.3501062655
  0
LWPOLYLINE
  5
57A
100
AcDbEntity
  8
0
100
AcDbPolyline
 62
1
  6
CONTINUOUS
 90
2
 70
0
 43
0.0020194132
 10
260.021639466
 20
75.3731219397
 10
259.2019019319
 20
74.9662812385
  0
LWPOLYLINE
  5
57B
100
AcDbEntity
  8
0
100
AcDbPolyline
 62
1
  6
CONTINUOUS
 90
2
 70
0
 43
0.0020194132
 10
268.2512328549
 20
75.7253075991
 10
267.4315009462
 20
75.3184819734
  0
LWPOLYLINE
  5
57C
100
AcDbEntity
  8
0
100
AcDbPolyline
 62
1
  6
CONTINUOUS
 90
2
 70
0
 43
0.0020194132
 10
219.738160813
 20
65.9423891203
 10
219.2887678629
 20
65.7195862191
  0
LWPOLYLINE
  5
57D
100
AcDbEntity
  8
0
100
AcDbPolyline
 62
1
  6
CONTINUOUS
 90
2
 70
0
 43
0.0020194132
 10
255.9541374281
 20
76.4926784276
 10
257.7618520722
 20
77.3841318942
  0
LWPOLYLINE
  5
57E
100
AcDbEntity
  8
0
100
AcDbPolyline
 62
1
  6
CONTINUOUS
 90
2
 70
0
 43
0.0020194132
 10
248.38722586
 20
70.6455458276
 10
248.8906333089
 20
70.8834605306
  0
LWPOLYLINE
  5
57F
100
AcDbEntity
  8
0
100
AcDbPolyline
 62
1
  6
CONTINUOUS
 90
2
 70
0
 43
0.0020194132
 10
234.1628598364
 20
69.7837819979
 10
234.664288552
 20
70.0179418474
  0
LWPOLYLINE
  5
580
100
AcDbEntity
  8
0
100
AcDbPolyline
 62
1
  6
CONTINUOUS
 90
2
 70
0
 43
0.0020194132
 10
188.1000255597
 20
63.1406370838
 10
187.183271121
 20
62.7223667915
  0
LWPOLYLINE
  5
581
100
AcDbEntity
  8
0
100
AcDbPolyline
 62
1
  6
CONTINUOUS
 90
2
 70
0
 43
0.0020194132
 10
264.4665292694
 20
78.2958958922
 10
266.590005089
 20
79.2642783085
  0
LWPOLYLINE
  5
582
100
AcDbEntity
  8
0
100
AcDbPolyline
 62
1
  6
CONTINUOUS
 90
2
 70
0
 43
0.0020194132
 10
233.1038395088
 20
67.5481005594
 10
232.5612633309
 20
67.3009463219
  0
LWPOLYLINE
  5
583
100
AcDbEntity
  8
0
100
AcDbPolyline
 62
1
  6
CONTINUOUS
 90
2
 70
0
 43
0.0020194132
 10
234.1042730993
 20
76.8400981706
 10
234.659787805
 20
77.0914229788
  0
LWPOLYLINE
  5
584
100
AcDbEntity
  8
0
100
AcDbPolyline
 62
1
  6
CONTINUOUS
 90
2
 70
0
 43
0.0020194132
 10
266.590005089
 20
79.2642783085
 10
268.9430838124
 20
80.3180993946
  0
LWPOLYLINE
  5
585
100
AcDbEntity
  8
0
100
AcDbPolyline
 62
1
  6
CONTINUOUS
 90
2
 70
0
 43
0.0020194132
 10
252.1435341001
 20
89.5225106234
 10
248.4320536024
 20
87.8733566725
  0
LWPOLYLINE
  5
586
100
AcDbEntity
  8
0
100
AcDbPolyline
 62
1
  6
CONTINUOUS
 90
2
 70
0
 43
0.0020194132
 10
183.4446485857
 20
63.4152424434
 10
185.1375855967
 20
64.1510525157
  0
LWPOLYLINE
  5
587
100
AcDbEntity
  8
0
100
AcDbPolyline
 62
1
  6
CONTINUOUS
 90
2
 70
0
 43
0.0020194132
 10
191.7503321438
 20
56.5652695409
 10
189.6959770718
 20
55.675874993
  0
LWPOLYLINE
  5
588
100
AcDbEntity
  8
0
100
AcDbPolyline
 62
1
  6
CONTINUOUS
 90
2
 70
0
 43
0.0020194132
 10
268.9708709376
 20
78.8432007805
 10
266.8957290901
 20
77.9632444247
  0
LWPOLYLINE
  5
589
100
AcDbEntity
  8
0
100
AcDbPolyline
 62
1
  6
CONTINUOUS
 90
2
 70
0
 43
0.0020194132
 10
214.3533582388
 20
65.1408862373
 10
213.6108560625
 20
64.827252107
  0
LWPOLYLINE
  5
58A
100
AcDbEntity
  8
0
100
AcDbPolyline
 62
1
  6
CONTINUOUS
 90
2
 70
0
 43
0.0020194132
 10
190.0262294909
 20
57.87713151
 10
193.5202861641
 20
59.3277875363
  0
LWPOLYLINE
  5
58B
100
AcDbEntity
  8
0
100
AcDbPolyline
 62
1
  6
CONTINUOUS
 90
2
 70
0
 43
0.0020194132
 10
256.4011004232
 20
93.6446245261
 10
252.9626456265
 20
92.3089730018
  0
LWPOLYLINE
  5
58C
100
AcDbEntity
  8
0
100
AcDbPolyline
 62
1
  6
CONTINUOUS
 90
2
 70
0
 43
0.0020194132
 10
185.1375855967
 20
64.1510525157
 10
187.0621345424
 20
64.8973864703
  0
LWPOLYLINE
  5
58D
100
AcDbEntity
  8
0
100
AcDbPolyline
 62
1
  6
CONTINUOUS
 90
2
 70
0
 43
0.0020194132
 10
232.5612633309
 20
67.3009463219
 10
232.0389783648
 20
67.0992998666
  0
LWPOLYLINE
  5
58E
100
AcDbEntity
  8
0
100
AcDbPolyline
 62
1
  6
CONTINUOUS
 90
2
 70
0
 43
0.0020194132
 10
189.0023634948
 20
63.4872062499
 10
188.1000255597
 20
63.1406370838
  0
LWPOLYLINE
  5
58F
100
AcDbEntity
  8
0
100
AcDbPolyline
 62
1
  6
CONTINUOUS
 90
2
 70
0
 43
0.0020194132
 10
219.2887678629
 20
65.7195862191
 10
218.869626443
 20
65.5604473342
  0
LWPOLYLINE
  5
590
100
AcDbEntity
  8
0
100
AcDbPolyline
 62
1
  6
CONTINUOUS
 90
2
 70
0
 43
0.0020194132
 10
215.4831067764
 20
74.4881130504
 10
216.6269200043
 20
74.9196956253
  0
LWPOLYLINE
  5
591
100
AcDbEntity
  8
0
100
AcDbPolyline
 62
1
  6
CONTINUOUS
 90
2
 70
0
 43
0.0020194132
 10
187.0621345424
 20
64.8973864703
 10
189.1188789647
 20
65.6452876387
  0
LWPOLYLINE
  5
592
100
AcDbEntity
  8
0
100
AcDbPolyline
 62
1
  6
CONTINUOUS
 90
2
 70
0
 43
0.0020194132
 10
187.0621345424
 20
64.8973864703
 10
191.4551303851
 20
66.4926312923
  0
LWPOLYLINE
  5
593
100
AcDbEntity
  8
0
100
AcDbPolyline
 62
1
  6
CONTINUOUS
 90
2
 70
0
 43
0.0020194132
 10
189.1188789647
 20
65.6452876387
 10
191.4551303851
 20
66.4926312923
  0
LWPOLYLINE
  5
594
100
AcDbEntity
  8
0
100
AcDbPolyline
 62
1
  6
CONTINUOUS
 90
2
 70
0
 43
0.0020194132
 10
189.6959770718
 20
55.675874993
 10
187.7641501458
 20
54.9843329359
  0
LWPOLYLINE
  5
595
100
AcDbEntity
  8
0
100
AcDbPolyline
 62
1
  6
CONTINUOUS
 90
2
 70
0
 43
0.0020194132
 10
262.4719146485
 20
77.636561014
 10
260.7157521658
 20
77.0172473788
  0
LWPOLYLINE
  5
596
100
AcDbEntity
  8
0
100
AcDbPolyline
 62
1
  6
CONTINUOUS
 90
2
 70
0
 43
0.0020194132
 10
271.7775143513
 20
81.2896625333
 10
268.9430838124
 20
80.3180993946
  0
LWPOLYLINE
  5
597
100
AcDbEntity
  8
0
100
AcDbPolyline
 62
1
  6
CONTINUOUS
 90
2
 70
0
 43
0.0020194132
 10
196.6970410038
 20
66.0667119583
 10
193.3367388148
 20
64.9631277462
  0
LWPOLYLINE
  5
598
100
AcDbEntity
  8
0
100
AcDbPolyline
 62
1
  6
CONTINUOUS
 90
2
 70
0
 43
0.0020194132
 10
189.0436420936
 20
59.1115137942
 10
188.759467267
 20
59.0186867604
  0
LWPOLYLINE
  5
599
100
AcDbEntity
  8
0
100
AcDbPolyline
 62
1
  6
CONTINUOUS
 90
2
 70
0
 43
0.0020194132
 10
224.4151038533
 20
75.6093125059
 10
220.0906516822
 20
74.2241566138
  0
LWPOLYLINE
  5
59A
100
AcDbEntity
  8
0
100
AcDbPolyline
 62
1
  6
CONTINUOUS
 90
2
 70
0
 43
0.0020194132
 10
253.6771834588
 20
80.1658702072
 10
254.1616329085
 20
80.3154009746
  0
LWPOLYLINE
  5
59B
100
AcDbEntity
  8
0
100
AcDbPolyline
 62
1
  6
CONTINUOUS
 90
2
 70
0
 43
0.0020194132
 10
255.2498468857
 20
93.6837875027
 10
255.6072534081
 20
93.7889600078
  0
LWPOLYLINE
  5
59C
100
AcDbEntity
  8
0
100
AcDbPolyline
 62
1
  6
CONTINUOUS
 90
2
 70
0
 43
0.0020194132
 10
213.6108560625
 20
64.827252107
 10
212.9048671862
 20
64.6229316031
  0
LWPOLYLINE
  5
59D
100
AcDbEntity
  8
0
100
AcDbPolyline
 62
7
  6
CONTINUOUS
 90
2
 70
0
 43
0.9999999695
 10
410.0
 20
497.0
 10
400.0
 20
497.0
  0
LWPOLYLINE
  5
59E
100
AcDbEntity
  8
0
100
AcDbPolyline
 62
7
  6
CONTINUOUS
 90
2
 70
0
 43
0.9999999695
 10
40.0
 20
497.0
 10
30.0
 20
497.0
  0
LWPOLYLINE
  5
59F
100
AcDbEntity
  8
0
100
AcDbPolyline
 62
1
  6
CONTINUOUS
 90
2
 70
0
 43
0.0020194132
 10
268.5576305595
 20
70.936718944
 10
267.7207923113
 20
70.4976690111
  0
LWPOLYLINE
  5
5A0
100
AcDbEntity
  8
0
100
AcDbPolyline
 62
1
  6
CONTINUOUS
 90
2
 70
0
 43
0.0020194132
 10
259.9195597052
 20
70.205509174
 10
258.9228607147
 20
69.7229858185
  0
LWPOLYLINE
  5
5A1
100
AcDbEntity
  8
0
100
AcDbPolyline
 62
1
  6
CONTINUOUS
 90
2
 70
0
 43
0.0020194132
 10
267.7207923113
 20
70.4976690111
 10
266.921690928
 20
70.1610959219
  0
LWPOLYLINE
  5
5A2
100
AcDbEntity
  8
0
100
AcDbPolyline
 62
1
  6
CONTINUOUS
 90
2
 70
0
 43
0.0020194132
 10
248.3462950351
 20
69.0404765867
 10
247.4638013422
 20
68.6807462916
  0
LWPOLYLINE
  5
5A3
100
AcDbEntity
  8
0
100
AcDbPolyline
 62
1
  6
CONTINUOUS
 90
2
 70
0
 43
0.0020194132
 10
266.8957290901
 20
77.9632444247
 10
264.7992354707
 20
77.1413063733
  0
LWPOLYLINE
  5
5A4
100
AcDbEntity
  8
0
100
AcDbPolyline
 62
1
  6
CONTINUOUS
 90
2
 70
0
 43
0.0020194132
 10
264.7992354707
 20
77.1413063733
 10
262.6809643013
 20
76.3771741754
  0
LWPOLYLINE
  5
5A5
100
AcDbEntity
  8
0
100
AcDbPolyline
 62
1
  6
CONTINUOUS
 90
2
 70
0
 43
0.0020194132
 10
257.127594599
 20
75.8369835003
 10
255.4602362403
 20
75.2586409058
  0
LWPOLYLINE
  5
5A6
100
AcDbEntity
  8
0
100
AcDbPolyline
 62
1
  6
CONTINUOUS
 90
2
 70
0
 43
0.0020194132
 10
258.9228607147
 20
69.7229858185
 10
257.9719610245
 20
69.3947442246
  0
LWPOLYLINE
  5
5A7
100
AcDbEntity
  8
0
100
AcDbPolyline
 62
1
  6
CONTINUOUS
 90
2
 70
0
 43
0.0020194132
 10
262.4719146485
 20
77.636561014
 10
264.4665292694
 20
78.2958958922
  0
LWPOLYLINE
  5
5A8
100
AcDbEntity
  8
0
100
AcDbPolyline
 62
1
  6
CONTINUOUS
 90
2
 70
0
 43
0.0020194132
 10
266.921690928
 20
70.1610959219
 10
266.1559606712
 20
69.9326591482
  0
LWPOLYLINE
  5
5A9
100
AcDbEntity
  8
0
100
AcDbPolyline
 62
1
  6
CONTINUOUS
 90
2
 70
0
 43
0.0020194132
 10
265.5376383874
 20
74.0082012115
 10
263.3060646738
 20
73.3428480668
  0
LWPOLYLINE
  5
5AA
100
AcDbEntity
  8
0
100
AcDbPolyline
 62
7
  6
CONTINUOUS
 90
2
 70
0
 43
0.9999999695
 10
400.0
 20
574.0
 10
40.0
 20
574.0
  0
LWPOLYLINE
  5
5AB
100
AcDbEntity
  8
0
100
AcDbPolyline
 62
2
  6
CONTINUOUS
 90
2
 70
0
 43
0.4999999847
 10
410.0
 20
584.0
 10
30.0
 20
584.0
  0
LWPOLYLINE
  5
5AC
100
AcDbEntity
  8
0
100
AcDbPolyline
 62
2
  6
CONTINUOUS
 90
2
 70
0
 43
3.9999998779
 10
420.0
 20
594.0
 10
400.0
 20
594.0
  0
LWPOLYLINE
  5
5AD
100
AcDbEntity
  8
0
100
AcDbPolyline
 62
2
  6
CONTINUOUS
 90
2
 70
0
 43
3.9999998779
 10
0.0
 20
594.0
 10
20.0
 20
594.0
  0
LINE
  5
5AE
100
AcDbEntity
  8
02___PRT_ALL_AXES
100
AcDbLine
 62
2
  6
CENTER
 10
128.0502043242
 20
276.7347753014
 11
128.0502043242
 21
307.7702610489
  0
LINE
  5
5AF
100
AcDbEntity
  8
02___PRT_ALL_AXES
100
AcDbLine
 62
2
  6
CENTER
 10
255.5502043242
 20
291.6441511743
 11
245.0502043242
 21
291.6441511743
  0
LINE
  5
5B0
100
AcDbEntity
  8
02___PRT_ALL_AXES
100
AcDbLine
 62
2
  6
CENTER
 10
102.8070898858
 20
291.6441511743
 11
245.0502043242
 21
291.6441511743
  0
LINE
  5
5B1
100
AcDbEntity
  8
02___PRT_ALL_AXES
100
AcDbLine
 62
2
  6
CENTER
 10
255.5502043242
 20
291.6441511743
 11
266.0502043242
 21
291.6441511743
  0
LINE
  5
5B2
100
AcDbEntity
  8
02___PRT_ALL_AXES
100
AcDbLine
 62
2
  6
CENTER
 10
266.0502043242
 20
291.6441511743
 11
376.2673138532
 21
291.6441511743
  0
LINE
  5
5B3
100
AcDbEntity
  8
02___PRT_ALL_AXES
100
AcDbLine
 62
2
  6
CENTER
 10
263.2537436066
 20
262.8941511743
 11
254.1604768669
 21
257.6441511743
  0
LINE
  5
5B4
100
AcDbEntity
  8
02___PRT_ALL_AXES
100
AcDbLine
 62
2
  6
CENTER
 10
263.2537436066
 20
262.8941511743
 11
272.3470103463
 21
268.1441511743
  0
LINE
  5
5B5
100
AcDbEntity
  8
02___PRT_ALL_AXES
100
AcDbLine
 62
2
  6
CENTER
 10
263.2537436066
 20
320.3941511743
 11
254.1604768669
 21
325.6441511743
  0
LINE
  5
5B6
100
AcDbEntity
  8
02___PRT_ALL_AXES
100
AcDbLine
 62
2
  6
CENTER
 10
263.2537436066
 20
320.3941511743
 11
272.3470103463
 21
315.1441511743
  0
LINE
  5
5B7
100
AcDbEntity
  8
02___PRT_ALL_AXES
100
AcDbLine
 62
2
  6
CENTER
 10
284.3002043242
 20
241.8476904567
 11
279.0502043242
 21
232.754423717
  0
LINE
  5
5B8
100
AcDbEntity
  8
02___PRT_ALL_AXES
100
AcDbLine
 62
2
  6
CENTER
 10
284.3002043242
 20
241.8476904567
 11
289.5502043242
 21
250.9409571965
  0
LINE
  5
5B9
100
AcDbEntity
  8
02___PRT_ALL_AXES
100
AcDbLine
 62
2
  6
CENTER
 10
284.3002043242
 20
341.4406118919
 11
289.5502043242
 21
332.3473451522
  0
LINE
  5
5BA
100
AcDbEntity
  8
02___PRT_ALL_AXES
100
AcDbLine
 62
2
  6
CENTER
 10
284.3002043242
 20
341.4406118919
 11
279.0502043242
 21
350.5338786317
  0
LINE
  5
5BB
100
AcDbEntity
  8
02___PRT_ALL_AXES
100
AcDbLine
 62
2
  6
CENTER
 10
313.0502043242
 20
349.1441511743
 11
313.0502043242
 21
338.6441511743
  0
LINE
  5
5BC
100
AcDbEntity
  8
02___PRT_ALL_AXES
100
AcDbLine
 62
2
  6
CENTER
 10
313.0502043242
 20
223.6441511743
 11
313.0502043242
 21
217.1579722682
  0
LINE
  5
5BD
100
AcDbEntity
  8
02___PRT_ALL_AXES
100
AcDbLine
 62
2
  6
CENTER
 10
313.0502043242
 20
234.1441511743
 11
313.0502043242
 21
223.6441511743
  0
LINE
  5
5BE
100
AcDbEntity
  8
02___PRT_ALL_AXES
100
AcDbLine
 62
2
  6
CENTER
 10
313.0502043242
 20
234.1441511743
 11
313.0502043242
 21
244.6441511743
  0
LINE
  5
5BF
100
AcDbEntity
  8
02___PRT_ALL_AXES
100
AcDbLine
 62
2
  6
CENTER
 10
313.0502043242
 20
349.1441511743
 11
313.0502043242
 21
359.6441511743
  0
LINE
  5
5C0
100
AcDbEntity
  8
02___PRT_ALL_AXES
100
AcDbLine
 62
2
  6
CENTER
 10
313.0502043242
 20
244.6441511743
 11
313.0502043242
 21
338.6441511743
  0
LINE
  5
5C1
100
AcDbEntity
  8
02___PRT_ALL_AXES
100
AcDbLine
 62
2
  6
CENTER
 10
313.0502043242
 20
359.6441511743
 11
313.0502043242
 21
365.8863390512
  0
LINE
  5
5C2
100
AcDbEntity
  8
02___PRT_ALL_AXES
100
AcDbLine
 62
2
  6
CENTER
 10
128.0502043242
 20
522.246291098
 11
128.0502043242
 21
506.2486180322
  0
LINE
  5
5C3
100
AcDbEntity
  8
02___PRT_ALL_AXES
100
AcDbLine
 62
2
  6
CENTER
 10
255.5502043242
 20
478.2526901672
 11
255.5502043242
 21
492.5006177414
  0
LINE
  5
5C4
100
AcDbEntity
  8
02___PRT_ALL_AXES
100
AcDbLine
 62
2
  6
CENTER
 10
313.0502043242
 20
477.2528356006
 11
313.0502043242
 21
491.7507268164
  0
LWPOLYLINE
  5
5C5
100
AcDbEntity
  8
0
100
AcDbPolyline
 62
1
  6
CONTINUOUS
 90
2
 70
0
 43
0.0020194132
 10
274.2378236311
 20
68.5279574535
 42
0.0226351005
 10
238.6963131232
 20
66.3873794773
  0
LWPOLYLINE
  5
5C6
100
AcDbEntity
  8
0
100
AcDbPolyline
 62
1
  6
CONTINUOUS
 90
2
 70
0
 43
0.0020194132
 10
275.1130373058
 20
64.5211185879
 42
0.0281035231
 10
237.2168910234
 20
63.5559198621
  0
LWPOLYLINE
  5
5C7
100
AcDbEntity
  8
0
100
AcDbPolyline
 62
1
  6
CONTINUOUS
 90
2
 70
0
 43
0.0020194132
 10
235.0418214703
 20
65.8728329979
 42
0.0239874414
 10
204.2057860136
 20
61.7043603006
  0
LWPOLYLINE
  5
5C8
100
AcDbEntity
  8
0
100
AcDbPolyline
 62
1
  6
CONTINUOUS
 90
2
 70
0
 43
0.0020194132
 10
205.1067674003
 20
69.4050289882
 42
0.0163797366
 10
195.5366875388
 20
67.8596124657
  0
LWPOLYLINE
  5
5C9
100
AcDbEntity
  8
0
100
AcDbPolyline
 62
1
  6
CONTINUOUS
 90
2
 70
0
 43
0.0020194132
 10
262.6809643013
 20
76.3771741754
 42
0.0205786979
 10
268.9708709376
 20
78.8432007805
  0
LWPOLYLINE
  5
5CA
100
AcDbEntity
  8
0
100
AcDbPolyline
 62
1
  6
CONTINUOUS
 90
2
 70
0
 43
0.0020194132
 10
203.6298493729
 20
67.4403015119
 42
0.0609376832
 10
193.3367388148
 20
64.9631277462
  0
LWPOLYLINE
  5
5CB
100
AcDbEntity
  8
0
100
AcDbPolyline
 62
1
  6
CONTINUOUS
 90
2
 70
0
 43
0.0020194132
 10
270.6339788606
 20
74.0360280812
 42
0.0365470588
 10
270.5551409701
 20
80.0832820297
  0
LWPOLYLINE
  5
5CC
100
AcDbEntity
  8
0
100
AcDbPolyline
 62
1
  6
CONTINUOUS
 90
2
 70
0
 43
0.0020194132
 10
192.3526509646
 20
63.1416369022
 42
0.0188414296
 10
193.3367388148
 20
64.9631277462
  0
CIRCLE
  5
5CD
100
AcDbEntity
  8
02___PRT_ALL_AXES
100
AcDbCircle
 62
2
  6
CENTER
 10
313.0502043242
 20
291.6441511743
 40
57.5
  0
SPLINE
  5
5CE
100
AcDbEntity
  8
0
100
AcDbSpline
 62
1
  6
CONTINUOUS
 70
0
 71
3
 72
12
 73
8
 74
0
 42
0.0000001
 43
0.0000001
 44
0.0000000001
 40
0.0
 40
0.0
 40
0.0
 40
0.0
 40
0.2452713582
 40
0.5403880214
 40
0.7753169052
 40
0.9648490766
 40
1.0
 40
1.0
 40
1.0
 40
1.0
 10
247.2898855451
 20
81.93346839
 30
0.0
 10
247.9509575177
 20
82.5378393249
 30
0.0
 10
249.5202777207
 20
83.8607690625
 30
0.0
 10
251.6757122642
 20
85.8836837222
 30
0.0
 10
253.0927041097
 20
88.0414838002
 30
0.0
 10
254.0664390042
 20
89.8065540618
 30
0.0
 10
253.721407125
 20
90.5736030471
 30
0.0
 10
253.6435248617
 20
90.6903709498
 30
0.0
  0
SPLINE
  5
5CF
100
AcDbEntity
  8
0
100
AcDbSpline
 62
1
  6
CONTINUOUS
 70
0
 71
3
 72
11
 73
7
 74
0
 42
0.0000001
 43
0.0000001
 44
0.0000000001
 40
0.0
 40
0.0
 40
0.0
 40
0.0
 40
0.171884202
 40
0.4477263424
 40
0.7564520156
 40
1.0
 40
1.0
 40
1.0
 40
1.0
 10
253.6435248617
 20
90.6903709498
 30
0.0
 10
253.1076752249
 20
90.348045973
 30
0.0
 10
251.8209768603
 20
89.3284033929
 30
0.0
 10
250.01466126
 20
87.2044239761
 30
0.0
 10
248.3046431673
 20
84.6769528427
 30
0.0
 10
247.5300540806
 20
82.8045912178
 30
0.0
 10
247.2898855451
 20
81.93346839
 30
0.0
  0
SPLINE
  5
5D0
100
AcDbEntity
  8
0
100
AcDbSpline
 62
1
  6
CONTINUOUS
 70
0
 71
3
 72
10
 73
6
 74
0
 42
0.0000001
 43
0.0000001
 44
0.0000000001
 40
0.0
 40
0.0
 40
0.0
 40
0.0
 40
0.4697916966
 40
0.7687468795
 40
1.0
 40
1.0
 40
1.0
 40
1.0
 10
217.7058054869
 20
73.2353711414
 30
0.0
 10
216.7913342809
 20
72.5896332287
 30
0.0
 10
214.9458005331
 20
71.1608802546
 30
0.0
 10
213.526037155
 20
68.7218178545
 30
0.0
 10
213.5331964513
 20
67.2655443987
 30
0.0
 10
213.7399203204
 20
66.6066069728
 30
0.0
  0
SPLINE
  5
5D1
100
AcDbEntity
  8
0
100
AcDbSpline
 62
1
  6
CONTINUOUS
 70
0
 71
3
 72
13
 73
9
 74
0
 42
0.0000001
 43
0.0000001
 44
0.0000000001
 40
0.0
 40
0.0
 40
0.0
 40
0.0
 40
0.0756246542
 40
0.1699935504
 40
0.3469104665
 40
0.6273803631
 40
0.8676442033
 40
1.0
 40
1.0
 40
1.0
 40
1.0
 10
213.7399203204
 20
66.6066069728
 30
0.0
 10
213.9921358486
 20
66.5257402198
 30
0.0
 10
214.4965743682
 20
66.5727879104
 30
0.0
 10
215.3509206849
 20
67.2473704591
 30
0.0
 10
216.6190273594
 20
68.2966615883
 30
0.0
 10
217.9715875078
 20
69.9180301914
 30
0.0
 10
218.9416632944
 20
71.7242712567
 30
0.0
 10
218.9380180747
 20
72.8491852381
 30
0.0
 10
218.8361114348
 20
73.2590386643
 30
0.0
  0
SPLINE
  5
5D2
100
AcDbEntity
  8
0
100
AcDbSpline
 62
1
  6
CONTINUOUS
 70
0
 71
3
 72
16
 73
12
 74
0
 42
0.0000001
 43
0.0000001
 44
0.0000000001
 40
0.0
 40
0.0
 40
0.0
 40
0.0
 40
0.121332088
 40
0.2879886419
 40
0.3622433295
 40
0.4225136415
 40
0.4758790735
 40
0.5590796224
 40
0.7275766502
 40
0.9834066725
 40
1.0
 40
1.0
 40
1.0
 40
1.0
 10
189.8977589368
 20
63.6831428928
 30
0.0
 10
189.7701141344
 20
63.2509546787
 30
0.0
 10
189.3432197673
 20
62.2683155015
 30
0.0
 10
188.6243236012
 20
61.1156706255
 30
0.0
 10
188.0797169517
 20
60.1717620292
 30
0.0
 10
187.8803485741
 20
59.4173113558
 30
0.0
 10
188.5559352072
 20
58.8441005441
 30
0.0
 10
189.7165809002
 20
59.4265277375
 30
0.0
 10
190.8819007186
 20
60.8454013128
 30
0.0
 10
191.8019544132
 20
62.2147596625
 30
0.0
 10
192.3212087134
 20
63.0883319054
 30
0.0
 10
192.3526509646
 20
63.1416369022
 30
0.0
  0
SPLINE
  5
5D3
100
AcDbEntity
  8
0
100
AcDbSpline
 62
1
  6
CONTINUOUS
 70
0
 71
3
 72
13
 73
9
 74
0
 42
0.0000001
 43
0.0000001
 44
0.0000000001
 40
0.0
 40
0.0
 40
0.0
 40
0.0
 40
0.0805954783
 40
0.1853339999
 40
0.2818718702
 40
0.490999122
 40
0.890350513
 40
1.0
 40
1.0
 40
1.0
 40
1.0
 10
183.3762659959
 20
56.7018699583
 30
0.0
 10
183.0059780524
 20
56.6939041416
 30
0.0
 10
182.2370073076
 20
56.8081509713
 30
0.0
 10
181.5144066076
 20
58.0722258659
 30
0.0
 10
182.4575359515
 20
59.6714406853
 30
0.0
 10
184.7665074363
 20
61.4493508636
 30
0.0
 10
187.4542156422
 20
62.9729465973
 30
0.0
 10
189.4111278272
 20
63.6361892804
 30
0.0
 10
189.8977589368
 20
63.6831428928
 30
0.0
  0
SPLINE
  5
5D4
100
AcDbEntity
  8
0
100
AcDbSpline
 62
1
  6
CONTINUOUS
 70
0
 71
3
 72
10
 73
6
 74
0
 42
0.0000001
 43
0.0000001
 44
0.0000000001
 40
0.0
 40
0.0
 40
0.0
 40
0.0
 40
0.3305944096
 40
0.7365719957
 40
1.0
 40
1.0
 40
1.0
 40
1.0
 10
203.6298493729
 20
67.4403015119
 30
0.0
 10
201.9835648808
 20
65.4734715495
 30
0.0
 10
197.7425782443
 20
61.416059204
 30
0.0
 10
190.6765195468
 20
57.6478593687
 30
0.0
 10
185.4681121656
 20
56.7468707815
 30
0.0
 10
183.3762659959
 20
56.7018699583
 30
0.0
  0
SPLINE
  5
5D5
100
AcDbEntity
  8
0
100
AcDbSpline
 62
1
  6
CONTINUOUS
 70
0
 71
3
 72
10
 73
6
 74
0
 42
0.0000001
 43
0.0000001
 44
0.0000000001
 40
0.0
 40
0.0
 40
0.0
 40
0.0
 40
0.239242101
 40
0.5050367701
 40
1.0
 40
1.0
 40
1.0
 40
1.0
 10
204.6885873176
 20
81.82135057
 30
0.0
 10
206.0339583618
 20
81.4285790841
 30
0.0
 10
207.8217103186
 20
79.8226954043
 30
0.0
 10
208.1321145228
 20
74.8213767902
 30
0.0
 10
206.1558341083
 20
70.7435117539
 30
0.0
 10
205.1067674003
 20
69.4050289882
 30
0.0
  0
SPLINE
  5
5D6
100
AcDbEntity
  8
0
100
AcDbSpline
 62
1
  6
CONTINUOUS
 70
0
 71
3
 72
10
 73
6
 74
0
 42
0.0000001
 43
0.0000001
 44
0.0000000001
 40
0.0
 40
0.0
 40
0.0
 40
0.0
 40
0.3356730493
 40
0.7322557907
 40
1.0
 40
1.0
 40
1.0
 40
1.0
 10
260.021639466
 20
75.3731219397
 30
0.0
 10
259.5678730753
 20
75.1430111363
 30
0.0
 10
258.4081400516
 20
74.6120075398
 30
0.0
 10
257.0095731839
 20
73.5670350978
 30
0.0
 10
256.6843082283
 20
72.5139313744
 30
0.0
 10
256.7052783566
 20
72.0129799523
 30
0.0
  0
SPLINE
  5
5D7
100
AcDbEntity
  8
0
100
AcDbSpline
 62
1
  6
CONTINUOUS
 70
0
 71
3
 72
11
 73
7
 74
0
 42
0.0000001
 43
0.0000001
 44
0.0000000001
 40
0.0
 40
0.0
 40
0.0
 40
0.0
 40
0.1687569619
 40
0.5438027783
 40
0.8333772415
 40
1.0
 40
1.0
 40
1.0
 40
1.0
 10
256.7052783566
 20
72.0129799523
 30
0.0
 10
257.0327415142
 20
71.9313157989
 30
0.0
 10
257.9729471193
 20
71.9889965147
 30
0.0
 10
259.0246610635
 20
73.1555895313
 30
0.0
 10
260.0837462932
 20
74.2621831867
 30
0.0
 10
260.1220470401
 20
75.0473301014
 30
0.0
 10
260.021639466
 20
75.3731219397
 30
0.0
  0
SPLINE
  5
5D8
100
AcDbEntity
  8
0
100
AcDbSpline
 62
1
  6
CONTINUOUS
 70
0
 71
3
 72
10
 73
6
 74
0
 42
0.0000001
 43
0.0000001
 44
0.0000000001
 40
0.0
 40
0.0
 40
0.0
 40
0.0
 40
0.3356730493
 40
0.7322557907
 40
1.0
 40
1.0
 40
1.0
 40
1.0
 10
268.2512328549
 20
75.7253075991
 30
0.0
 10
267.7974692248
 20
75.4952050519
 30
0.0
 10
266.6377439412
 20
74.9642218602
 30
0.0
 10
265.2391815452
 20
73.9192789518
 30
0.0
 10
264.913907894
 20
72.8661919622
 30
0.0
 10
264.9348717455
 20
72.3652463886
 30
0.0
  0
SPLINE
  5
5D9
100
AcDbEntity
  8
0
100
AcDbSpline
 62
1
  6
CONTINUOUS
 70
0
 71
3
 72
11
 73
7
 74
0
 42
0.0000001
 43
0.0000001
 44
0.0000000001
 40
0.0
 40
0.0
 40
0.0
 40
0.0
 40
0.1687569619
 40
0.5438027783
 40
0.8333772415
 40
1.0
 40
1.0
 40
1.0
 40
1.0
 10
264.9348717455
 20
72.3652463886
 30
0.0
 10
265.2623299343
 20
72.2835792935
 30
0.0
 10
266.2025247833
 20
72.3412480067
 30
0.0
 10
267.2542399411
 20
73.507814177
 30
0.0
 10
268.313325574
 20
74.6143816283
 30
0.0
 10
268.351635291
 20
75.3995185219
 30
0.0
 10
268.2512328549
 20
75.7253075991
 30
0.0
  0
SPLINE
  5
5DA
100
AcDbEntity
  8
0
100
AcDbSpline
 62
1
  6
CONTINUOUS
 70
0
 71
3
 72
10
 73
6
 74
0
 42
0.0000001
 43
0.0000001
 44
0.0000000001
 40
0.0
 40
0.0
 40
0.0
 40
0.0
 40
0.3383880805
 40
0.631675419
 40
1.0
 40
1.0
 40
1.0
 40
1.0
 10
176.9105088593
 20
83.7712151648
 30
0.0
 10
179.7051124957
 20
84.7987838976
 30
0.0
 10
185.0674398478
 20
86.365224618
 30
0.0
 10
193.8075221262
 20
87.6334465239
 30
0.0
 10
199.656382096
 20
87.5295339772
 30
0.0
 10
202.8911480299
 20
87.1391924756
 30
0.0
  0
SPLINE
  5
5DB
100
AcDbEntity
  8
0
100
AcDbSpline
 62
1
  6
CONTINUOUS
 70
0
 71
3
 72
11
 73
7
 74
0
 42
0.0000001
 43
0.0000001
 44
0.0000000001
 40
0.0
 40
0.0
 40
0.0
 40
0.0
 40
0.1560610013
 40
0.3873062789
 40
0.5907135328
 40
1.0
 40
1.0
 40
1.0
 40
1.0
 10
207.3492045779
 20
85.5315780267
 30
0.0
 10
208.1971144391
 20
85.1661170639
 30
0.0
 10
210.1946302862
 20
83.8113976711
 30
0.0
 10
212.2020760769
 20
80.5827780785
 30
0.0
 10
211.8956327876
 20
75.3710118767
 30
0.0
 10
209.7074446161
 20
71.7085787457
 30
0.0
 10
208.5204642249
 20
69.9755536015
 30
0.0
  0
SPLINE
  5
5DC
100
AcDbEntity
  8
0
100
AcDbSpline
 62
1
  6
CONTINUOUS
 70
0
 71
3
 72
11
 73
7
 74
0
 42
0.0000001
 43
0.0000001
 44
0.0000000001
 40
0.0
 40
0.0
 40
0.0
 40
0.0
 40
0.2916502314
 40
0.6609156275
 40
0.8610779287
 40
1.0
 40
1.0
 40
1.0
 40
1.0
 10
210.7650823691
 20
70.0290276624
 30
0.0
 10
211.4550908144
 20
70.8031012325
 30
0.0
 10
213.0693009721
 20
72.8268470219
 30
0.0
 10
215.6839527328
 20
74.9608051158
 30
0.0
 10
218.5225242797
 20
75.1945901456
 30
0.0
 10
219.6897538005
 20
74.6106964134
 30
0.0
 10
220.0906516822
 20
74.2241566138
 30
0.0
  0
SPLINE
  5
5DD
100
AcDbEntity
  8
0
100
AcDbSpline
 62
1
  6
CONTINUOUS
 70
0
 71
3
 72
9
 73
5
 74
0
 42
0.0000001
 43
0.0000001
 44
0.0000000001
 40
0.0
 40
0.0
 40
0.0
 40
0.0
 40
0.4283564704
 40
1.0
 40
1.0
 40
1.0
 40
1.0
 10
220.7659434513
 20
68.0588881588
 30
0.0
 10
222.1106694351
 20
68.9608247594
 30
0.0
 10
224.9551953497
 20
71.3395987125
 30
0.0
 10
227.1116433899
 20
74.3561571895
 30
0.0
 10
228.1195154004
 20
76.2889662075
 30
0.0
  0
SPLINE
  5
5DE
100
AcDbEntity
  8
0
100
AcDbSpline
 62
1
  6
CONTINUOUS
 70
0
 71
3
 72
12
 73
8
 74
0
 42
0.0000001
 43
0.0000001
 44
0.0000000001
 40
0.0
 40
0.0
 40
0.0
 40
0.0
 40
0.3105901325
 40
0.5672013812
 40
0.7451011959
 40
0.8872227795
 40
1.0
 40
1.0
 40
1.0
 40
1.0
 10
230.1289930731
 20
73.830613372
 30
0.0
 10
230.8120789896
 20
74.3257502396
 30
0.0
 10
231.9384100392
 20
75.2442309468
 30
0.0
 10
233.4499666854
 20
76.4303600835
 30
0.0
 10
234.7966868097
 20
77.3094309518
 30
0.0
 10
235.9699439704
 20
77.0064934444
 30
0.0
 10
236.5261113695
 20
76.5800384022
 30
0.0
 10
236.7130070458
 20
76.3744277733
 30
0.0
  0
SPLINE
  5
5DF
100
AcDbEntity
  8
0
100
AcDbSpline
 62
1
  6
CONTINUOUS
 70
0
 71
3
 72
11
 73
7
 74
0
 42
0.0000001
 43
0.0000001
 44
0.0000000001
 40
0.0
 40
0.0
 40
0.0
 40
0.0
 40
0.0975552019
 40
0.3138259924
 40
0.6535047459
 40
1.0
 40
1.0
 40
1.0
 40
1.0
 10
236.7130070458
 20
76.3744277733
 30
0.0
 10
236.7912932361
 20
76.1295923141
 30
0.0
 10
236.866031786
 20
75.3494289339
 30
0.0
 10
236.175846183
 20
73.7909319145
 30
0.0
 10
235.0004755494
 20
71.8882949337
 30
0.0
 10
234.0802222549
 20
70.4581365576
 30
0.0
 10
233.6561001422
 20
69.6835464547
 30
0.0
  0
SPLINE
  5
5E0
100
AcDbEntity
  8
0
100
AcDbSpline
 62
1
  6
CONTINUOUS
 70
0
 71
3
 72
13
 73
9
 74
0
 42
0.0000001
 43
0.0000001
 44
0.0000000001
 40
0.0
 40
0.0
 40
0.0
 40
0.0
 40
0.0599339245
 40
0.182189949
 40
0.385810687
 40
0.5493710741
 40
0.76278078
 40
1.0
 40
1.0
 40
1.0
 40
1.0
 10
233.6561001422
 20
69.6835464547
 30
0.0
 10
233.8405584748
 20
69.6925793595
 30
0.0
 10
234.3704254313
 20
69.8106977556
 30
0.0
 10
235.3515151246
 20
70.4548592222
 30
0.0
 10
236.5431734733
 20
71.2886842427
 30
0.0
 10
237.8007785426
 20
72.4887260697
 30
0.0
 10
239.0875609647
 20
73.7940680564
 30
0.0
 10
239.9603237738
 20
74.8163436357
 30
0.0
 10
240.3897930203
 20
75.3825727935
 30
0.0
  0
SPLINE
  5
5E1
100
AcDbEntity
  8
0
100
AcDbSpline
 62
1
  6
CONTINUOUS
 70
0
 71
3
 72
11
 73
7
 74
0
 42
0.0000001
 43
0.0000001
 44
0.0000000001
 40
0.0
 40
0.0
 40
0.0
 40
0.0
 40
0.1882746373
 40
0.4480865812
 40
0.6924945287
 40
1.0
 40
1.0
 40
1.0
 40
1.0
 10
241.5356080618
 20
77.5715359097
 30
0.0
 10
242.274768002
 20
78.6939257533
 30
0.0
 10
243.9761461268
 20
81.3976383383
 30
0.0
 10
246.6215844678
 20
85.563648706
 30
0.0
 10
250.1598071921
 20
90.1905418904
 30
0.0
 10
253.2169700827
 20
92.6810730519
 30
0.0
 10
255.2498468857
 20
93.6837875027
 30
0.0
  0
SPLINE
  5
5E2
100
AcDbEntity
  8
0
100
AcDbSpline
 62
1
  6
CONTINUOUS
 70
0
 71
3
 72
15
 73
11
 74
0
 42
0.0000001
 43
0.0000001
 44
0.0000000001
 40
0.0
 40
0.0
 40
0.0
 40
0.0
 40
0.0590522894
 40
0.0951627805
 40
0.1353994377
 40
0.2537757425
 40
0.3812060024
 40
0.579695299
 40
0.8185470279
 40
1.0
 40
1.0
 40
1.0
 40
1.0
 10
255.2498468857
 20
93.6837875027
 30
0.0
 10
255.6266452505
 20
93.8696429197
 30
0.0
 10
256.4889231334
 20
93.8085837791
 30
0.0
 10
257.0097984303
 20
92.9200441819
 30
0.0
 10
257.0673311892
 20
91.5108305003
 30
0.0
 10
256.288316445
 20
89.5584545649
 30
0.0
 10
254.4980510423
 20
86.9576083279
 30
0.0
 10
251.7435784115
 20
84.0004319726
 30
0.0
 10
248.3311132438
 20
81.2153572776
 30
0.0
 10
245.9943003051
 20
79.3471570152
 30
0.0
 10
245.015703192
 20
78.5062818851
 30
0.0
  0
SPLINE
  5
5E3
100
AcDbEntity
  8
0
100
AcDbSpline
 62
1
  6
CONTINUOUS
 70
0
 71
3
 72
10
 73
6
 74
0
 42
0.0000001
 43
0.0000001
 44
0.0000000001
 40
0.0
 40
0.0
 40
0.0
 40
0.0
 40
0.3061457003
 40
0.654868138
 40
1.0
 40
1.0
 40
1.0
 40
1.0
 10
245.015703192
 20
78.5062818851
 30
0.0
 10
245.7064553714
 20
78.362896867
 30
0.0
 10
247.1822104565
 20
78.284797973
 30
0.0
 10
249.4312365267
 20
78.5752503384
 30
0.0
 10
250.9896373935
 20
78.7957545513
 30
0.0
 10
251.7645820573
 20
78.8410198146
 30
0.0
  0
SPLINE
  5
5E4
100
AcDbEntity
  8
0
100
AcDbSpline
 62
1
  6
CONTINUOUS
 70
0
 71
3
 72
10
 73
6
 74
0
 42
0.0000001
 43
0.0000001
 44
0.0000000001
 40
0.0
 40
0.0
 40
0.0
 40
0.0
 40
0.2573154745
 40
0.6739488805
 40
1.0
 40
1.0
 40
1.0
 40
1.0
 10
251.7403490993
 20
78.2301877141
 30
0.0
 10
251.1435287726
 20
77.7579621799
 30
0.0
 10
249.4846565421
 20
76.4414545732
 30
0.0
 10
247.3313060041
 20
74.0696436521
 30
0.0
 10
246.8853170254
 20
71.8216123074
 30
0.0
 10
247.0477175155
 20
70.7191823126
 30
0.0
  0
SPLINE
  5
5E5
100
AcDbEntity
  8
0
100
AcDbSpline
 62
1
  6
CONTINUOUS
 70
0
 71
3
 72
11
 73
7
 74
0
 42
0.0000001
 43
0.0000001
 44
0.0000000001
 40
0.0
 40
0.0
 40
0.0
 40
0.0
 40
0.1145741606
 40
0.2606483602
 40
0.7791086617
 40
1.0
 40
1.0
 40
1.0
 40
1.0
 10
247.0477175155
 20
70.7191823126
 30
0.0
 10
247.3352674216
 20
70.54471937
 30
0.0
 10
247.9938397556
 20
70.4364267536
 30
0.0
 10
249.8909250775
 20
71.3213473449
 30
0.0
 10
251.4648954001
 20
73.0441388027
 30
0.0
 10
252.374963832
 20
74.7258829951
 30
0.0
 10
252.6159666563
 20
75.2339439828
 30
0.0
  0
SPLINE
  5
5E6
100
AcDbEntity
  8
0
100
AcDbSpline
 62
1
  6
CONTINUOUS
 70
0
 71
3
 72
12
 73
8
 74
0
 42
0.0000001
 43
0.0000001
 44
0.0000000001
 40
0.0
 40
0.0
 40
0.0
 40
0.0
 40
0.1698692471
 40
0.4055428539
 40
0.7031276688
 40
0.8878246685
 40
1.0
 40
1.0
 40
1.0
 40
1.0
 10
252.6159666563
 20
75.2339439828
 30
0.0
 10
252.1374319299
 20
75.4784113997
 30
0.0
 10
251.5698009483
 20
76.2755229961
 30
0.0
 10
252.0368959389
 20
78.1066504232
 30
0.0
 10
252.7336418174
 20
79.7699685299
 30
0.0
 10
254.2136191988
 20
80.453311135
 30
0.0
 10
254.9182260109
 20
80.2788811466
 30
0.0
 10
255.1524770369
 20
80.1131212953
 30
0.0
  0
SPLINE
  5
5E7
100
AcDbEntity
  8
0
100
AcDbSpline
 62
1
  6
CONTINUOUS
 70
0
 71
3
 72
9
 73
5
 74
0
 42
0.0000001
 43
0.0000001
 44
0.0000000001
 40
0.0
 40
0.0
 40
0.0
 40
0.0
 40
0.3267882805
 40
1.0
 40
1.0
 40
1.0
 40
1.0
 10
255.5710951349
 20
79.6393342346
 30
0.0
 10
255.6520505747
 20
79.2841149748
 30
0.0
 10
255.7636827198
 20
78.2095702731
 30
0.0
 10
255.4588421525
 20
77.1731435844
 30
0.0
 10
255.064868638
 20
76.4926846094
 30
0.0
  0
SPLINE
  5
5E8
100
AcDbEntity
  8
0
100
AcDbSpline
 62
1
  6
CONTINUOUS
 70
0
 71
3
 72
9
 73
5
 74
0
 42
0.0000001
 43
0.0000001
 44
0.0000000001
 40
0.0
 40
0.0
 40
0.0
 40
0.0
 40
0.2950814529
 40
1.0
 40
1.0
 40
1.0
 40
1.0
 10
255.9541374281
 20
76.4926846094
 30
0.0
 10
256.5104739462
 20
76.7192908049
 30
0.0
 10
258.3274033271
 20
77.5967436822
 30
0.0
 10
259.9124084429
 20
78.8453087431
 30
0.0
 10
260.9144624233
 20
79.909854825
 30
0.0
  0
SPLINE
  5
5E9
100
AcDbEntity
  8
0
100
AcDbSpline
 62
1
  6
CONTINUOUS
 70
0
 71
3
 72
10
 73
6
 74
0
 42
0.0000001
 43
0.0000001
 44
0.0000000001
 40
0.0
 40
0.0
 40
0.0
 40
0.0
 40
0.310237117
 40
0.6382341285
 40
1.0
 40
1.0
 40
1.0
 40
1.0
 10
261.0216528752
 20
82.0282192564
 30
0.0
 10
261.1868567151
 20
82.4961360973
 30
0.0
 10
261.7393349548
 20
83.5030144723
 30
0.0
 10
263.1190173807
 20
84.6496732237
 30
0.0
 10
264.3188792971
 20
84.6672797236
 30
0.0
 10
264.9755023391
 20
84.3266345674
 30
0.0
  0
SPLINE
  5
5EA
100
AcDbEntity
  8
0
100
AcDbSpline
 62
1
  6
CONTINUOUS
 70
0
 71
3
 72
10
 73
6
 74
0
 42
0.0000001
 43
0.0000001
 44
0.0000000001
 40
0.0
 40
0.0
 40
0.0
 40
0.0
 40
0.1691263651
 40
0.5218221497
 40
1.0
 40
1.0
 40
1.0
 40
1.0
 10
264.9755023391
 20
84.3266345674
 30
0.0
 10
265.1269643731
 20
84.0208053231
 30
0.0
 10
265.2829917408
 20
83.1060258308
 30
0.0
 10
264.2184253192
 20
81.5269181652
 30
0.0
 10
262.8460162531
 20
80.4546618443
 30
0.0
 10
262.4855658815
 20
79.921325092
 30
0.0
  0
SPLINE
  5
5EB
100
AcDbEntity
  8
0
100
AcDbSpline
 62
1
  6
CONTINUOUS
 70
0
 71
3
 72
10
 73
6
 74
0
 42
0.0000001
 43
0.0000001
 44
0.0000000001
 40
0.0
 40
0.0
 40
0.0
 40
0.0
 40
0.3189478875
 40
0.7230794899
 40
1.0
 40
1.0
 40
1.0
 40
1.0
 10
262.4719146485
 20
77.636561014
 30
0.0
 10
263.203838183
 20
77.8113025838
 30
0.0
 10
264.7946055271
 20
78.377810677
 30
0.0
 10
266.8900129882
 20
79.4236998491
 30
0.0
 10
268.3397194603
 20
80.0835113786
 30
0.0
 10
268.9430838124
 20
80.3180993946
 30
0.0
  0
SPLINE
  5
5EC
100
AcDbEntity
  8
0
100
AcDbSpline
 62
1
  6
CONTINUOUS
 70
0
 71
3
 72
13
 73
9
 74
0
 42
0.0000001
 43
0.0000001
 44
0.0000000001
 40
0.0
 40
0.0
 40
0.0
 40
0.0
 40
0.2715457388
 40
0.497111999
 40
0.733431984
 40
0.8708352043
 40
0.9622617847
 40
1.0
 40
1.0
 40
1.0
 40
1.0
 10
268.9430838124
 20
80.3180993946
 30
0.0
 10
268.9484950077
 20
81.014681306
 30
0.0
 10
269.06561119
 20
82.43502211
 30
0.0
 10
269.9207405866
 20
84.2933768259
 30
0.0
 10
271.3852016673
 20
85.2349757269
 30
0.0
 10
272.8479079034
 20
85.0745225478
 30
0.0
 10
273.1486094914
 20
84.3336177986
 30
0.0
 10
273.1850819446
 20
83.9807286473
 30
0.0
 10
273.1873000135
 20
83.8782684384
 30
0.0
  0
SPLINE
  5
5ED
100
AcDbEntity
  8
0
100
AcDbSpline
 62
1
  6
CONTINUOUS
 70
0
 71
3
 72
13
 73
9
 74
0
 42
0.0000001
 43
0.0000001
 44
0.0000000001
 40
0.0
 40
0.0
 40
0.0
 40
0.0
 40
0.1771359138
 40
0.3992772962
 40
0.6250889381
 40
0.8036848594
 40
0.9636194081
 40
1.0
 40
1.0
 40
1.0
 40
1.0
 10
270.6339788606
 20
74.0360280812
 30
0.0
 10
270.5941595443
 20
73.3731669602
 30
0.0
 10
270.092975689
 20
71.8428002257
 30
0.0
 10
267.9860659767
 20
70.543370735
 30
0.0
 10
265.8799764414
 20
69.7159234954
 30
0.0
 10
263.4023664013
 20
69.7483194114
 30
0.0
 10
262.8996574905
 20
71.3320414253
 30
0.0
 10
262.9428583062
 20
72.0967595719
 30
0.0
 10
262.9602780737
 20
72.2359327206
 30
0.0
  0
SPLINE
  5
5EE
100
AcDbEntity
  8
0
100
AcDbSpline
 62
1
  6
CONTINUOUS
 70
0
 71
3
 72
14
 73
10
 74
0
 42
0.0000001
 43
0.0000001
 44
0.0000000001
 40
0.0
 40
0.0
 40
0.0
 40
0.0
 40
0.1825674851
 40
0.4186311326
 40
0.6145783887
 40
0.8052061379
 40
0.9200008428
 40
0.9568928483
 40
1.0
 40
1.0
 40
1.0
 40
1.0
 10
262.6809643013
 20
76.3771741754
 30
0.0
 10
262.6606058463
 20
75.586532493
 30
0.0
 10
262.4498947706
 20
73.5494628837
 30
0.0
 10
261.2187977239
 20
70.763718583
 30
0.0
 10
258.5082335062
 20
69.4523090816
 30
0.0
 10
256.1032250314
 20
68.9153995094
 30
0.0
 10
254.5581795801
 20
70.0498185275
 30
0.0
 10
254.5075538191
 20
70.9764116501
 30
0.0
 10
254.4798927553
 20
71.3547505229
 30
0.0
 10
254.4805013418
 20
71.5559898301
 30
0.0
  0
SPLINE
  5
5EF
100
AcDbEntity
  8
0
100
AcDbSpline
 62
1
  6
CONTINUOUS
 70
0
 71
3
 72
10
 73
6
 74
0
 42
0.0000001
 43
0.0000001
 44
0.0000000001
 40
0.0
 40
0.0
 40
0.0
 40
0.0
 40
0.4003313369
 40
0.7437283638
 40
1.0
 40
1.0
 40
1.0
 40
1.0
 10
260.7157521658
 20
78.1116885484
 30
0.0
 10
259.9327871526
 20
77.5131938879
 30
0.0
 10
258.3865435577
 20
76.3939774148
 30
0.0
 10
256.0790410009
 20
75.3218115887
 30
0.0
 10
254.5850543797
 20
75.0751598533
 30
0.0
 10
253.9264850371
 20
75.0676251131
 30
0.0
  0
SPLINE
  5
5F0
100
AcDbEntity
  8
0
100
AcDbSpline
 62
1
  6
CONTINUOUS
 70
0
 71
3
 72
14
 73
10
 74
0
 42
0.0000001
 43
0.0000001
 44
0.0000000001
 40
0.0
 40
0.0
 40
0.0
 40
0.0
 40
0.177387521
 40
0.3703319988
 40
0.558401924
 40
0.7155145926
 40
0.8244676732
 40
0.9465430319
 40
1.0
 40
1.0
 40
1.0
 40
1.0
 10
253.9264850371
 20
75.0676251131
 30
0.0
 10
253.5401520831
 20
74.1423534309
 30
0.0
 10
252.4474664191
 20
72.38903323
 30
0.0
 10
250.1969797642
 20
70.2126151316
 30
0.0
 10
247.7516612961
 20
68.4769819695
 30
0.0
 10
244.8640717882
 20
68.3051997687
 30
0.0
 10
243.4449301558
 20
70.2569223148
 30
0.0
 10
243.534510668
 20
71.8766620317
 30
0.0
 10
243.9163441769
 20
72.8612882854
 30
0.0
 10
244.0546687587
 20
73.1555741808
 30
0.0
  0
SPLINE
  5
5F1
100
AcDbEntity
  8
0
100
AcDbSpline
 62
1
  6
CONTINUOUS
 70
0
 71
3
 72
10
 73
6
 74
0
 42
0.0000001
 43
0.0000001
 44
0.0000000001
 40
0.0
 40
0.0
 40
0.0
 40
0.0
 40
0.404761351
 40
0.758262576
 40
1.0
 40
1.0
 40
1.0
 40
1.0
 10
233.4162746323
 20
63.1784511494
 30
0.0
 10
229.3788371608
 20
63.1628058302
 30
0.0
 10
221.8585844042
 20
62.6348411638
 30
0.0
 10
211.9894696218
 20
61.383873642
 30
0.0
 10
206.1138915651
 20
60.6564584361
 30
0.0
 10
203.7248425695
 20
60.3950535679
 30
0.0
  0
SPLINE
  5
5F2
100
AcDbEntity
  8
0
100
AcDbSpline
 62
1
  6
CONTINUOUS
 70
0
 71
3
 72
14
 73
10
 74
0
 42
0.0000001
 43
0.0000001
 44
0.0000000001
 40
0.0
 40
0.0
 40
0.0
 40
0.0
 40
0.1622969909
 40
0.3793697529
 40
0.4875836946
 40
0.5765472751
 40
0.7138022025
 40
0.8565483714
 40
1.0
 40
1.0
 40
1.0
 40
1.0
 10
237.2819969046
 20
70.250678454
 30
0.0
 10
236.5452640562
 20
69.7922127239
 30
0.0
 10
235.0379573338
 20
68.6805238632
 30
0.0
 10
233.0697502041
 20
67.3933334728
 30
0.0
 10
230.7160828792
 20
66.6580221212
 30
0.0
 10
229.6905847024
 20
68.4314860884
 30
0.0
 10
230.4067303342
 20
70.2941710161
 30
0.0
 10
231.682132661
 20
71.9966910252
 30
0.0
 10
232.3988653177
 20
73.2296181484
 30
0.0
 10
232.6058437328
 20
73.9649447372
 30
0.0
  0
SPLINE
  5
5F3
100
AcDbEntity
  8
0
100
AcDbSpline
 62
1
  6
CONTINUOUS
 70
0
 71
3
 72
9
 73
5
 74
0
 42
0.0000001
 43
0.0000001
 44
0.0000000001
 40
0.0
 40
0.0
 40
0.0
 40
0.0
 40
0.5759229991
 40
1.0
 40
1.0
 40
1.0
 40
1.0
 10
232.6058437328
 20
73.9649447372
 30
0.0
 10
230.9942562239
 20
72.7583406029
 30
0.0
 10
228.447360909
 20
70.4316827578
 30
0.0
 10
226.3369366948
 20
67.7029244121
 30
0.0
 10
225.5204498545
 20
66.4734064788
 30
0.0
  0
SPLINE
  5
5F4
100
AcDbEntity
  8
0
100
AcDbSpline
 62
1
  6
CONTINUOUS
 70
0
 71
3
 72
12
 73
8
 74
0
 42
0.0000001
 43
0.0000001
 44
0.0000000001
 40
0.0
 40
0.0
 40
0.0
 40
0.0
 40
0.2336527753
 40
0.5779262637
 40
0.7953994206
 40
0.9166622646
 40
1.0
 40
1.0
 40
1.0
 40
1.0
 10
223.6906191789
 20
68.5940326531
 30
0.0
 10
223.0922716937
 20
68.2517703867
 30
0.0
 10
221.8294154845
 20
67.3465764843
 30
0.0
 10
220.1919024096
 20
66.0738381669
 30
0.0
 10
218.0843761804
 20
65.1708117322
 30
0.0
 10
217.2814876022
 20
66.1537726074
 30
0.0
 10
216.9151336862
 20
66.6169687089
 30
0.0
 10
216.7556311949
 20
66.7504699682
 30
0.0
  0
SPLINE
  5
5F5
100
AcDbEntity
  8
0
100
AcDbSpline
 62
1
  6
CONTINUOUS
 70
0
 71
3
 72
12
 73
8
 74
0
 42
0.0000001
 43
0.0000001
 44
0.0000000001
 40
0.0
 40
0.0
 40
0.0
 40
0.0
 40
0.2447658992
 40
0.4578761651
 40
0.6532448297
 40
0.7688870023
 40
1.0
 40
1.0
 40
1.0
 40
1.0
 10
216.7556311949
 20
66.7504699682
 30
0.0
 10
216.0476761937
 20
66.1980627848
 30
0.0
 10
214.7802328185
 20
65.2387690889
 30
0.0
 10
212.6742467132
 20
64.4344039661
 30
0.0
 10
210.4912171119
 20
64.4213369435
 30
0.0
 10
209.6236711316
 20
66.2394741157
 30
0.0
 10
209.762684766
 20
67.8421196563
 30
0.0
 10
209.8993195481
 20
68.3363555305
 30
0.0
  0
SPLINE
  5
5F6
100
AcDbEntity
  8
0
100
AcDbSpline
 62
1
  6
CONTINUOUS
 70
0
 71
3
 72
13
 73
9
 74
0
 42
0.0000001
 43
0.0000001
 44
0.0000000001
 40
0.0
 40
0.0
 40
0.0
 40
0.0
 40
0.2254274542
 40
0.4252759972
 40
0.7065284118
 40
0.8669384421
 40
0.9554663548
 40
1.0
 40
1.0
 40
1.0
 40
1.0
 10
207.3797381053
 20
68.2793273023
 30
0.0
 10
205.60564036
 20
66.1247897432
 30
0.0
 10
201.8589862185
 20
62.557901941
 30
0.0
 10
194.6708086134
 20
57.8228342431
 30
0.0
 10
187.4175937917
 20
54.4104232384
 30
0.0
 10
181.1106303636
 20
53.6842556816
 30
0.0
 10
177.2501677478
 20
53.8909069135
 30
0.0
 10
176.1192439766
 20
55.0376745155
 30
0.0
 10
175.8500746074
 20
55.5904657174
 30
0.0
  0
SPLINE
  5
5F7
100
AcDbEntity
  8
0
100
AcDbSpline
 62
1
  6
CONTINUOUS
 70
0
 71
3
 72
11
 73
7
 74
0
 42
0.0000001
 43
0.0000001
 44
0.0000000001
 40
0.0
 40
0.0
 40
0.0
 40
0.0
 40
0.0769571185
 40
0.2539393488
 40
0.4009342909
 40
1.0
 40
1.0
 40
1.0
 40
1.0
 10
175.8500746074
 20
55.5904657174
 30
0.0
 10
175.6871807382
 20
56.1443699138
 30
0.0
 10
175.7140047771
 20
57.8438853924
 30
0.0
 10
177.8178264928
 20
59.9396904821
 30
0.0
 10
182.7813575563
 20
63.5833903295
 30
0.0
 10
187.1927049845
 20
64.9170965699
 30
0.0
 10
191.4551303851
 20
66.4926312923
 30
0.0
  0
SPLINE
  5
5F8
100
AcDbEntity
  8
0
100
AcDbSpline
 62
1
  6
CONTINUOUS
 70
0
 71
3
 72
10
 73
6
 74
0
 42
0.0000001
 43
0.0000001
 44
0.0000000001
 40
0.0
 40
0.0
 40
0.0
 40
0.0
 40
0.2495348677
 40
0.5372305003
 40
1.0
 40
1.0
 40
1.0
 40
1.0
 10
200.2736654357
 20
82.7546425677
 30
0.0
 10
197.8157027914
 20
83.1618418795
 30
0.0
 10
192.5623841098
 20
83.1748037779
 30
0.0
 10
183.0565782617
 20
80.6624865637
 30
0.0
 10
176.3518487897
 20
77.2358356561
 30
0.0
 10
172.4681229581
 20
75.220454303
 30
0.0
  0
SPLINE
  5
5F9
100
AcDbEntity
  8
0
100
AcDbSpline
 62
1
  6
CONTINUOUS
 70
0
 71
3
 72
8
 73
4
 74
0
 42
0.0000001
 43
0.0000001
 44
0.0000000001
 40
0.0
 40
0.0
 40
0.0
 40
0.0
 40
1.0
 40
1.0
 40
1.0
 40
1.0
 10
255.1524770369
 20
80.1131212953
 30
0.0
 10
255.3089872327
 20
80.0023721254
 30
0.0
 10
255.4512172929
 20
79.847050008
 30
0.0
 10
255.5710951349
 20
79.6393342346
 30
0.0
  0
SPLINE
  5
5FA
100
AcDbEntity
  8
0
100
AcDbSpline
 62
1
  6
CONTINUOUS
 70
0
 71
3
 72
9
 73
5
 74
0
 42
0.0000001
 43
0.0000001
 44
0.0000000001
 40
0.0
 40
0.0
 40
0.0
 40
0.0
 40
0.3938729265
 40
1.0
 40
1.0
 40
1.0
 40
1.0
 10
273.1873000135
 20
83.8782684384
 30
0.0
 10
273.2005631311
 20
83.2655994261
 30
0.0
 10
272.4682323038
 20
81.7685426746
 30
0.0
 10
271.0125883046
 20
80.5878021653
 30
0.0
 10
270.5551409701
 20
80.0832820297
 30
0.0
  0
SPLINE
  5
5FB
100
AcDbEntity
  8
0
100
AcDbSpline
 62
1
  6
CONTINUOUS
 70
0
 71
3
 72
10
 73
6
 74
0
 42
0.0000001
 43
0.0000001
 44
0.0000000001
 40
0.0
 40
0.0
 40
0.0
 40
0.0
 40
0.1972847406
 40
0.4809590028
 40
1.0
 40
1.0
 40
1.0
 40
1.0
 10
262.9602780737
 20
72.2359327206
 30
0.0
 10
263.0301796433
 20
72.7944029529
 30
0.0
 10
263.5701425888
 20
74.0560912845
 30
0.0
 10
265.6798454621
 20
75.9140513754
 30
0.0
 10
267.9035569808
 20
76.8652919088
 30
0.0
 10
268.9571389282
 20
77.6256561831
 30
0.0
  0
SPLINE
  5
5FC
100
AcDbEntity
  8
0
100
AcDbSpline
 62
1
  6
CONTINUOUS
 70
0
 71
3
 72
11
 73
7
 74
0
 42
0.0000001
 43
0.0000001
 44
0.0000000001
 40
0.0
 40
0.0
 40
0.0
 40
0.0
 40
0.0466972821
 40
0.2490410252
 40
0.561708895
 40
1.0
 40
1.0
 40
1.0
 40
1.0
 10
254.4805013418
 20
71.5559898301
 30
0.0
 10
254.4809080904
 20
71.6904881574
 30
0.0
 10
254.520034635
 20
72.4015229355
 30
0.0
 10
255.388149789
 20
73.8919107475
 30
0.0
 10
257.5774678679
 20
75.5759858295
 30
0.0
 10
259.6350969253
 20
76.4349222006
 30
0.0
 10
260.7157521658
 20
77.0172473788
 30
0.0
  0
SPLINE
  5
5FD
100
AcDbEntity
  8
0
100
AcDbSpline
 62
1
  6
CONTINUOUS
 70
0
 71
3
 72
8
 73
4
 74
0
 42
0.0000001
 43
0.0000001
 44
0.0000000001
 40
0.0
 40
0.0
 40
0.0
 40
0.0
 40
1.0
 40
1.0
 40
1.0
 40
1.0
 10
244.0546687587
 20
73.1555741808
 30
0.0
 10
244.732897134
 20
74.5985067525
 30
0.0
 10
245.9409956289
 20
75.9074306089
 30
0.0
 10
246.7068405699
 20
76.5868700403
 30
0.0
  0
INSERT
  5
5FE
100
AcDbEntity
  8
new_view_9_VBL0
100
AcDbBlockReference
  2
NEW_VIEW_9_VBL0
 10
233.1752043242
 20
291.67391414
  0
INSERT
  5
5FF
100
AcDbEntity
  8
unten_11_VBL2
100
AcDbBlockReference
  2
UNTEN_11_VBL2
 10
216.8002043242
 20
500.4250190514
  0
ENDSEC
  0
SECTION
  2
OBJECTS
  0
DICTIONARY
  5
C
100
AcDbDictionary
280
0
281
1
  3
ACAD_GROUP
350
D
  3
ACAD_MLINESTYLE
350
17
  3
ACAD_LAYOUT
350
1A
  3
ACAD_PLOTSETTINGS
350
19
  3
ACAD_PLOTSTYLENAME
350
E
  3
ACAD_TABLESTYLE
350
       600
  0
DICTIONARY
  5
D
102
{ACAD_REACTORS
330
C
102
}
100
AcDbDictionary
280
0
281
1
  0
ACDBDICTIONARYWDFLT
  5
E
102
{ACAD_REACTORS
330
C
102
}
100
AcDbDictionary
281
1
  3
Normal
350
F
100
AcDbDictionaryWithDefault
340
F
  0
DICTIONARY
  5
17
102
{ACAD_REACTORS
330
C
102
}
100
AcDbDictionary
280
0
281
1
  3
Standard
350
18
  0
DICTIONARY
  5
600
330
C
100
AcDbDictionary
281
1
  3
Standard
350
       603
  3
Standard1
350
       604
  0
DICTIONARY
  5
19
102
{ACAD_REACTORS
330
C
102
}
100
AcDbDictionary
281
1
  0
DICTIONARY
  5
1A
102
{ACAD_REACTORS
330
C
102
}
100
AcDbDictionary
281
1
  3
Model
350
601
  3
Layout1
350
602
  0
ACDBPLACEHOLDER
  5
F
102
{ACAD_REACTORS
330
E
102
}
  0
MLINESTYLE
  5
18
102
{ACAD_REACTORS
330
17
102
}
100
AcDbMlineStyle
  2
STANDARD
 70
0
  3

 62
256
 51
90.0
 52
90.0
 71
2
 49
0.5
 62
256
  6
BYLAYER
 49
-0.5
 62
256
  6
BYLAYER
  0
LAYOUT
  5
601
102
{ACAD_REACTORS
330
1A
102
}
100
AcDbPlotSettings
  1

  2
none_device
  4

  6

 40
0.0
 41
0.0
 42
0.0
 43
0.0
 44
210.0
 45
297.0
 46
0.0
 47
0.0
 48
0.0
 49
0.0
140
0.0
141
0.0
142
1.0
143
1.0
 70
1024
 72
1
 73
0
 74
0
  7

 75
0
147
1.0
148
0.0
149
0.0
100
AcDbLayout
  1
Model
 70
0
 71
0
 10
0.0
 20
0.0
 11
210.0
 21
297.0
 12
0.0
 22
0.0
 32
0.0
 14
0.0
 24
0.0
 34
0.0
 15
0.0
 25
0.0
 35
0.0
146
0.0
 13
0.0
 23
0.0
 33
0.0
 16
1.0
 26
0.0
 36
0.0
 17
0.0
 27
1.0
 37
0.0
 76
0
330
20D
345
0
346
0
  0
LAYOUT
  5
602
102
{ACAD_REACTORS
330
1A
102
}
100
AcDbPlotSettings
  1

  2
none_device
  4

  6

 40
0.0
 41
0.0
 42
0.0
 43
0.0
 44
210.0
 45
297.0
 46
0.0
 47
0.0
 48
0.0
 49
0.0
140
0.0
141
0.0
142
1.0
143
1.0
 70
0
 72
1
 73
0
 74
0
  7

 75
0
147
1.0
148
0.0
149
0.0
100
AcDbLayout
  1
Layout1
 70
0
 71
1
 10
0.0
 20
0.0
 11
210.0
 21
297.0
 12
0.0
 22
0.0
 32
0.0
 14
0.0
 24
0.0
 34
0.0
 15
0.0
 25
0.0
 35
0.0
146
0.0
 13
0.0
 23
0.0
 33
0.0
 16
1.0
 26
0.0
 36
0.0
 17
0.0
 27
1.0
 37
0.0
 76
0
330
20E
345
0
346
0
  0
TABLESTYLE
  5
603
102
{ACAD_REACTORS
330
600
330
32E
102
}
330
600
100
AcDbTableStyle
  3
Standard
 70
0
 71
0
 40
0.06
 41
0.06
280
1
281
1
  7
Standard
140
0.18
170
1
 62
0
 63
7
283
0
  7
Standard
140
0.18
170
1
 62
0
 63
7
283
0
  7
Standard
140
0.18
170
1
 62
0
 63
7
283
0
  0
TABLESTYLE
  5
604
102
{ACAD_REACTORS
330
600
102
}
330
600
100
AcDbTableStyle
  3
Standard1
 70
1
 71
0
 40
0.06
 41
0.06
280
1
281
1
  7
Standard
140
0.18
170
1
 62
0
 63
7
283
0
  7
Standard
140
0.18
170
1
 62
0
 63
7
283
0
  7
Standard
140
0.18
170
1
 62
0
 63
7
283
0
  0
ENDSEC
  0
EOF
