999
DXF file: 178g5919_info.dxf
999
Pro/ENGINEER 2013050 by Parametric Technology Corporation
  0
SECTION
  2
HEADER
  9
$ACADVER
  1
AC1021
  9
$DWGCODEPAGE
  3
ANSI_1252
  9
$EXTMAX
 10
210.0
 20
297.0
 30
0.0
  9
$EXTMIN
 10
0.0
 20
0.0
 30
0.0
  9
$LIMMIN
 10
0.0
 20
0.0
  9
$LIMMAX
 10
210.0
 20
297.0
  9
$VIEWCTR
 10
105.0
 20
148.5
  9
$VIEWSIZE
 40
297.0
  9
$CLAYER
  8
0
  9
$LTSCALE
 40
19.36
  9
$CELTYPE
  6
BYLAYER
  9
$DIMSCALE
 40
1.0
  9
$DIMASZ
 40
3.5
  9
$DIMEXO
 40
0.0
  9
$DIMDLI
 40
13.376
  9
$DIMEXE
 40
1.5
  9
$DIMCEN
 40
3.168
  9
$DIMLFAC
 40
1.0
  9
$DIMBLK
  1
_FILLED
  9
$DIMTXT
 40
3.0
  9
$DIMTOL
 70
1
  9
$DIMLIM
 70
0
  9
$DIMTFAC
 40
1.0
  9
$DIMTP
 40
0.01
  9
$DIMTM
 40
0.01
  9
$DIMGAP
 40
0.625
  9
$DIMDSEP
 70
46
  9
$PDMODE
 70
3
  9
$PDSIZE
 40
8.0
  9
$HANDSEED
  5
328
  9
$TILEMODE
 70
1
  9
$MEASUREMENT
 70
1
  9
$INSUNITS
 70
4
  0
ENDSEC
  0
SECTION
  2
CLASSES
  0
CLASS
  1
ACDBDICTIONARYWDFLT
  2
AcDbDictionaryWithDefault
  3
AutoCAD 2000
 90
0
 91
1
280
0
281
0
  0
CLASS
  1
ACDBPLACEHOLDER
  2
AcDbPlaceHolder
  3
AutoCAD 2000
 90
0
 91
1
280
0
281
0
  0
CLASS
  1
LAYOUT
  2
AcDbLayout
  3
AutoCAD 2000
 90
0
 91
0
280
0
281
0
  0
CLASS
  1
TABLESTYLE
  2
AcDbTableStyle
  3
ObjectDBX Classes
 90
2047
 91
1
280
0
281
0
  0
CLASS
  1
ACAD_TABLE
  2
AcDbTable
  3
ObjectDBX Classes
 90
1025
 91
2
280
0
281
1
  0
ENDSEC
  0
SECTION
  2
TABLES
  0
TABLE
  2
VPORT
  5
8
100
AcDbSymbolTable
 70
2
  0
VPORT
  5
1F4
100
AcDbSymbolTableRecord
100
AcDbViewportTableRecord
  2
*ACTIVE
 70
0
 10
0.0
 20
0.0
 11
1.0
 21
1.0
 12
105.0
 22
148.5
 13
0.0
 23
0.0
 14
1.0
 24
1.0
 15
0.0
 25
0.0
 16
0.0
 26
0.0
 36
1.0
 17
0.0
 27
0.0
 37
0.0
 40
297.0
 41
0.7070707071
 42
50.0
 43
0.0
 44
0.0
 50
0.0
 51
0.0
 71
0
 72
100
 73
1
 74
1
 75
0
 76
0
 77
0
 78
0
  0
ENDTAB
  0
TABLE
  2
LTYPE
  5
5
100
AcDbSymbolTable
 70
6
  0
LTYPE
  5
14
100
AcDbSymbolTableRecord
100
AcDbLinetypeTableRecord
  2
BYBLOCK
 70
0
  3

 72
65
 73
0
 40
0.0
  0
LTYPE
  5
15
100
AcDbSymbolTableRecord
100
AcDbLinetypeTableRecord
  2
BYLAYER
 70
0
  3

 72
65
 73
0
 40
0.0
  0
LTYPE
  5
16
100
AcDbSymbolTableRecord
100
AcDbLinetypeTableRecord
  2
CONTINUOUS
 70
64
  3
Solid line
 72
65
 73
0
 40
0.0
  0
LTYPE
  5
1F5
100
AcDbSymbolTableRecord
100
AcDbLinetypeTableRecord
  2
CENTER
 70
64
  3
____ _ ____ _ ____ _ ____ _ ____ _ ____ _ ____
 72
65
 73
4
 40
0.6
 49
0.375
 74
0
 49
-0.075
 74
0
 49
0.075
 74
0
 49
-0.075
 74
0
  0
LTYPE
  5
1F6
100
AcDbSymbolTableRecord
100
AcDbLinetypeTableRecord
  2
HIDDEN
 70
64
  3
- - - - - - - - - - - - - - - - - - - -
 72
65
 73
2
 40
0.2
 49
0.1
 74
0
 49
-0.1
 74
0
  0
LTYPE
  5
1F7
100
AcDbSymbolTableRecord
100
AcDbLinetypeTableRecord
  2
PHANTOM
 70
64
  3
_____ _ _ _____ _ _ _____ _ _ _____
 72
65
 73
6
 40
0.8
 49
0.45
 74
0
 49
-0.05
 74
0
 49
0.1
 74
0
 49
-0.05
 74
0
 49
0.1
 74
0
 49
-0.05
 74
0
  0
LTYPE
  5
1F8
100
AcDbSymbolTableRecord
100
AcDbLinetypeTableRecord
  2
DOT
 70
64
  3
. . . . . . . . . . . . . . . . . . . .
 72
65
 73
2
 40
0.2
 49
0.1
 74
0
 49
-0.1
 74
0
  0
LTYPE
  5
1F9
100
AcDbSymbolTableRecord
100
AcDbLinetypeTableRecord
  2
DASHED
 70
64
  3
- - - - - - - - - - - - - - - - - - - -
 72
65
 73
2
 40
0.2
 49
0.1
 74
0
 49
-0.1
 74
0
  0
ENDTAB
  0
TABLE
  2
LAYER
  5
2
100
AcDbSymbolTable
 70
36
  0
LAYER
  5
10
100
AcDbSymbolTableRecord
100
AcDbLayerTableRecord
  2
0
 70
0
 62
7
  6
CONTINUOUS
370
-3
390
F
  0
LAYER
  5
1FA
100
AcDbSymbolTableRecord
100
AcDbLayerTableRecord
  2
DEFAULT_1
 70
0
 62
7
  6
CENTER
370
-3
390
F
  0
LAYER
  5
1FB
100
AcDbSymbolTableRecord
100
AcDbLayerTableRecord
  2
DEFAULT_2
 70
0
 62
8
  6
HIDDEN
370
-3
390
F
  0
LAYER
  5
1FC
100
AcDbSymbolTableRecord
100
AcDbLayerTableRecord
  2
DEFAULT_3
 70
0
 62
7
  6
PHANTOM
370
-3
390
F
  0
LAYER
  5
1FD
100
AcDbSymbolTableRecord
100
AcDbLayerTableRecord
  2
01_ALL_DTM_PLN
 70
0
 62
7
  6
CONTINUOUS
370
-3
390
F
  0
LAYER
  5
1FE
100
AcDbSymbolTableRecord
100
AcDbLayerTableRecord
  2
01__ASM_ALL_DTM_PLN
 70
0
 62
7
  6
CONTINUOUS
370
-3
390
F
  0
LAYER
  5
1FF
100
AcDbSymbolTableRecord
100
AcDbLayerTableRecord
  2
01__ASM_DEF_DTM_PLN
 70
0
 62
7
  6
CONTINUOUS
370
-3
390
F
  0
LAYER
  5
200
100
AcDbSymbolTableRecord
100
AcDbLayerTableRecord
  2
01___PRT_ALL_DTM_PLN
 70
0
 62
7
  6
CONTINUOUS
370
-3
390
F
  0
LAYER
  5
201
100
AcDbSymbolTableRecord
100
AcDbLayerTableRecord
  2
01___PRT_DEF_DTM_PLN
 70
0
 62
7
  6
CONTINUOUS
370
-3
390
F
  0
LAYER
  5
202
100
AcDbSymbolTableRecord
100
AcDbLayerTableRecord
  2
02_ALL_AXES
 70
0
 62
7
  6
CONTINUOUS
370
-3
390
F
  0
LAYER
  5
203
100
AcDbSymbolTableRecord
100
AcDbLayerTableRecord
  2
02__ASM_ALL_AXES
 70
0
 62
7
  6
CONTINUOUS
370
-3
390
F
  0
LAYER
  5
204
100
AcDbSymbolTableRecord
100
AcDbLayerTableRecord
  2
02___PRT_ALL_AXES
 70
0
 62
7
  6
CONTINUOUS
370
-3
390
F
  0
LAYER
  5
205
100
AcDbSymbolTableRecord
100
AcDbLayerTableRecord
  2
03_ALL_CURVES
 70
0
 62
7
  6
CONTINUOUS
370
-3
390
F
  0
LAYER
  5
206
100
AcDbSymbolTableRecord
100
AcDbLayerTableRecord
  2
03__ASM_ALL_CURVES
 70
0
 62
7
  6
CONTINUOUS
370
-3
390
F
  0
LAYER
  5
207
100
AcDbSymbolTableRecord
100
AcDbLayerTableRecord
  2
03___PRT_ALL_CURVES
 70
0
 62
7
  6
CONTINUOUS
370
-3
390
F
  0
LAYER
  5
208
100
AcDbSymbolTableRecord
100
AcDbLayerTableRecord
  2
04_ALL_DTM_PNT
 70
0
 62
7
  6
CONTINUOUS
370
-3
390
F
  0
LAYER
  5
209
100
AcDbSymbolTableRecord
100
AcDbLayerTableRecord
  2
04__ASM_ALL_DTM_PNT
 70
0
 62
7
  6
CONTINUOUS
370
-3
390
F
  0
LAYER
  5
20A
100
AcDbSymbolTableRecord
100
AcDbLayerTableRecord
  2
04___PRT_ALL_DTM_PNT
 70
0
 62
7
  6
CONTINUOUS
370
-3
390
F
  0
LAYER
  5
20B
100
AcDbSymbolTableRecord
100
AcDbLayerTableRecord
  2
05_ALL_DTM_CSYS
 70
0
 62
7
  6
CONTINUOUS
370
-3
390
F
  0
LAYER
  5
20C
100
AcDbSymbolTableRecord
100
AcDbLayerTableRecord
  2
05__ASM_ALL_DTM_CSYS
 70
0
 62
7
  6
CONTINUOUS
370
-3
390
F
  0
LAYER
  5
20D
100
AcDbSymbolTableRecord
100
AcDbLayerTableRecord
  2
05__ASM_DEF_DTM_CSYS
 70
0
 62
7
  6
CONTINUOUS
370
-3
390
F
  0
LAYER
  5
20E
100
AcDbSymbolTableRecord
100
AcDbLayerTableRecord
  2
05___PRT_ALL_DTM_CSYS
 70
0
 62
7
  6
CONTINUOUS
370
-3
390
F
  0
LAYER
  5
20F
100
AcDbSymbolTableRecord
100
AcDbLayerTableRecord
  2
05___PRT_DEF_DTM_CSYS
 70
0
 62
7
  6
CONTINUOUS
370
-3
390
F
  0
LAYER
  5
210
100
AcDbSymbolTableRecord
100
AcDbLayerTableRecord
  2
06_ALL_SURFS
 70
0
 62
7
  6
CONTINUOUS
370
-3
390
F
  0
LAYER
  5
211
100
AcDbSymbolTableRecord
100
AcDbLayerTableRecord
  2
06__ASM_ALL_SURFS
 70
0
 62
7
  6
CONTINUOUS
370
-3
390
F
  0
LAYER
  5
212
100
AcDbSymbolTableRecord
100
AcDbLayerTableRecord
  2
06___PRT_ALL_SURFS
 70
0
 62
7
  6
CONTINUOUS
370
-3
390
F
  0
LAYER
  5
213
100
AcDbSymbolTableRecord
100
AcDbLayerTableRecord
  2
07__ASM_ALL_SKELETONS
 70
0
 62
7
  6
CONTINUOUS
370
-3
390
F
  0
ENDTAB
  0
TABLE
  2
STYLE
  5
3
100
AcDbSymbolTable
 70
1
  0
STYLE
  5
11
100
AcDbSymbolTableRecord
100
AcDbTextStyleTableRecord
  2
STANDARD
 70
0
 40
0.0
 41
0.6
 50
0.0
 71
0
 42
0.2
  3
txt
  4

  0
STYLE
  5
214
100
AcDbSymbolTableRecord
100
AcDbTextStyleTableRecord
  2
TEXTSTYLE_1
 70
0
 40
0.0
 41
0.8
 50
0.0
 71
0
 42
0.2
  3
gdt
  4

  0
STYLE
  5
215
100
AcDbSymbolTableRecord
100
AcDbTextStyleTableRecord
  2
TEXTSTYLE_2
 70
0
 40
0.0
 41
1.0
 50
0.0
 71
0
 42
0.2
  3
univots.ttf
  4

  0
STYLE
  5
216
100
AcDbSymbolTableRecord
100
AcDbTextStyleTableRecord
  2
TEXTSTYLE_3
 70
0
 40
0.0
 41
1.0
 50
0.0
 71
0
 42
0.2
  3
univots.ttf
  4

  0
ENDTAB
  0
TABLE
  2
VIEW
  5
6
100
AcDbSymbolTable
 70
0
  0
ENDTAB
  0
TABLE
  2
UCS
  5
7
100
AcDbSymbolTable
 70
0
  0
ENDTAB
  0
TABLE
  2
APPID
  5
9
100
AcDbSymbolTable
 70
1
  0
APPID
  5
217
100
AcDbSymbolTableRecord
100
AcDbRegAppTableRecord
  2
ACAD
 70
0
  0
ENDTAB
  0
TABLE
  2
BLOCK_RECORD
  5
1
100
AcDbSymbolTable
 70
0
  0
BLOCK_RECORD
  5
218
100
AcDbSymbolTableRecord
100
AcDbBlockTableRecord
  2
*Model_Space
  0
BLOCK_RECORD
  5
219
100
AcDbSymbolTableRecord
100
AcDbBlockTableRecord
  2
*Paper_Space
  0
BLOCK_RECORD
  5
21A
100
AcDbSymbolTableRecord
100
AcDbBlockTableRecord
  2
_DOT
  0
BLOCK_RECORD
  5
21B
100
AcDbSymbolTableRecord
100
AcDbBlockTableRecord
  2
_FILLED
  0
BLOCK_RECORD
  5
21C
100
AcDbSymbolTableRecord
100
AcDbBlockTableRecord
  2
BALLOON_BL7
  0
BLOCK_RECORD
  5
21D
100
AcDbSymbolTableRecord
100
AcDbBlockTableRecord
  2
BALLOON_BL6
  0
BLOCK_RECORD
  5
21E
100
AcDbSymbolTableRecord
100
AcDbBlockTableRecord
  2
BALLOON_BL5
  0
BLOCK_RECORD
  5
21F
100
AcDbSymbolTableRecord
100
AcDbBlockTableRecord
  2
BALLOON_BL4
  0
BLOCK_RECORD
  5
220
100
AcDbSymbolTableRecord
100
AcDbBlockTableRecord
  2
BALLOON_BL3
  0
BLOCK_RECORD
  5
221
100
AcDbSymbolTableRecord
100
AcDbBlockTableRecord
  2
BALLOON_BL2
  0
BLOCK_RECORD
  5
222
100
AcDbSymbolTableRecord
100
AcDbBlockTableRecord
  2
BALLOON_BL1
  0
BLOCK_RECORD
  5
223
100
AcDbSymbolTableRecord
100
AcDbBlockTableRecord
  2
BALLOON_BL0
  0
BLOCK_RECORD
  5
224
100
AcDbSymbolTableRecord
100
AcDbBlockTableRecord
  2
*T1
  0
BLOCK_RECORD
  5
225
100
AcDbSymbolTableRecord
100
AcDbBlockTableRecord
  2
*T2
  0
ENDTAB
  0
TABLE
  2
DIMSTYLE
  5
A
100
AcDbSymbolTable
 70
1
100
AcDbDimStyleTable
 71
0
  0
DIMSTYLE
105
226
100
AcDbSymbolTableRecord
100
AcDbDimStyleTableRecord
  2
STANDARD
 70
0
  3

  4

 40
1.0
 41
3.5
 42
0.0
 43
0.38
 44
1.5
 45
0.0
 46
0.0
 47
0.01
 48
0.01
140
3.0
141
0.09
142
0.0
143
25.4
144
1.0
145
0.0
146
1.0
147
0.625
 71
1.0
 72
0.0
 73
0
 74
0
 75
0
 76
0
 77
1
 78
8
170
0
171
2
172
0
173
0
174
0
175
0
176
0
177
0
178
0
270
2
271
2
272
2
273
2
274
2
275
0
280
0
281
0
282
0
283
1
284
8
285
0
286
0
287
3
288
0
340
11
278
46
341
21B
342
21B
343
21B
344
21B
  0
ENDTAB
  0
ENDSEC
  0
SECTION
  2
BLOCKS
  0
BLOCK
  5
20
100
AcDbEntity
  8
0
100
AcDbBlockBegin
  2
*Model_Space
 70
0
 10
0.0
 20
0.0
 30
0.0
  3
*Model_Space
  1

  0
ENDBLK
  5
21
100
AcDbEntity
  8
0
100
AcDbBlockEnd
  0
BLOCK
  5
1C
100
AcDbEntity
  8
0
100
AcDbBlockBegin
  2
*Paper_Space
 70
0
 10
0.0
 20
0.0
 30
0.0
  3
*Paper_Space
  1

  0
ENDBLK
  5
1D
100
AcDbEntity
  8
0
100
AcDbBlockEnd
  0
BLOCK
  5
227
100
AcDbEntity
  8
0
100
AcDbBlockBegin
 62
2
  6
CONTINUOUS
  2
BALLOON_BL7
 70
64
 10
159.3660530928
 20
215.3307143573
  3
BALLOON_BL7
  1

  0
CIRCLE
  5
228
100
AcDbEntity
  8
0
100
AcDbCircle
 62
2
  6
CONTINUOUS
 10
159.3660530928
 20
215.3307143573
 40
3.4948927424
  0
MTEXT
  5
229
100
AcDbEntity
  8
0
100
AcDbMText
 62
2
  6
CONTINUOUS
  7
STANDARD
 71
1
 72
1
 10
157.0803388071
 20
216.3307143573
 30
0.0
 11
1.0
 21
0.0
 31
0.0
 44
0.9
  1
 5 
 40
2.0
 41
6.8571428571
  0
ENDBLK
  5
22A
100
AcDbEntity
  8
0
  6
BYBLOCK
 62
0
100
AcDbBlockEnd
  0
BLOCK
  5
22B
100
AcDbEntity
  8
0
100
AcDbBlockBegin
 62
2
  6
CONTINUOUS
  2
BALLOON_BL6
 70
64
 10
59.0460530928
 20
205.0599237039
  3
BALLOON_BL6
  1

  0
CIRCLE
  5
22C
100
AcDbEntity
  8
0
100
AcDbCircle
 62
2
  6
CONTINUOUS
 10
59.0460530928
 20
205.0599237039
 40
3.3647064796
  0
MTEXT
  5
22D
100
AcDbEntity
  8
0
100
AcDbMText
 62
2
  6
CONTINUOUS
  7
STANDARD
 71
1
 72
1
 10
56.9031959499
 20
206.0599237039
 30
0.0
 11
1.0
 21
0.0
 31
0.0
 44
0.9
  1
 1 
 40
2.0
 41
6.4285714286
  0
ENDBLK
  5
22E
100
AcDbEntity
  8
0
  6
BYBLOCK
 62
0
100
AcDbBlockEnd
  0
BLOCK
  5
22F
100
AcDbEntity
  8
0
100
AcDbBlockBegin
 62
2
  6
CONTINUOUS
  2
BALLOON_BL5
 70
64
 10
59.0460530928
 20
193.0671560355
  3
BALLOON_BL5
  1

  0
CIRCLE
  5
230
100
AcDbEntity
  8
0
100
AcDbCircle
 62
2
  6
CONTINUOUS
 10
59.0460530928
 20
193.0671560355
 40
3.5604926184
  0
MTEXT
  5
231
100
AcDbEntity
  8
0
100
AcDbMText
 62
2
  6
CONTINUOUS
  7
STANDARD
 71
1
 72
1
 10
56.6889102356
 20
194.0671560355
 30
0.0
 11
1.0
 21
0.0
 31
0.0
 44
0.9
  1
 2 
 40
2.0
 41
7.0714285714
  0
ENDBLK
  5
232
100
AcDbEntity
  8
0
  6
BYBLOCK
 62
0
100
AcDbBlockEnd
  0
BLOCK
  5
233
100
AcDbEntity
  8
0
100
AcDbBlockBegin
 62
2
  6
CONTINUOUS
  2
BALLOON_BL4
 70
64
 10
159.3660530928
 20
182.1616853619
  3
BALLOON_BL4
  1

  0
CIRCLE
  5
234
100
AcDbEntity
  8
0
100
AcDbCircle
 62
2
  6
CONTINUOUS
 10
159.3660530928
 20
182.1616853619
 40
3.4948927424
  0
MTEXT
  5
235
100
AcDbEntity
  8
0
100
AcDbMText
 62
2
  6
CONTINUOUS
  7
STANDARD
 71
1
 72
1
 10
157.0803388071
 20
183.1616853619
 30
0.0
 11
1.0
 21
0.0
 31
0.0
 44
0.9
  1
 3 
 40
2.0
 41
6.8571428571
  0
ENDBLK
  5
236
100
AcDbEntity
  8
0
  6
BYBLOCK
 62
0
100
AcDbBlockEnd
  0
BLOCK
  5
237
100
AcDbEntity
  8
0
100
AcDbBlockBegin
 62
2
  6
CONTINUOUS
  2
BALLOON_BL3
 70
64
 10
89.1226581716
 20
258.0464192416
  3
BALLOON_BL3
  1

  0
CIRCLE
  5
238
100
AcDbEntity
  8
0
100
AcDbCircle
 62
2
  6
CONTINUOUS
 10
89.1226581716
 20
258.0464192416
 40
3.5604926184
  0
MTEXT
  5
239
100
AcDbEntity
  8
0
100
AcDbMText
 62
2
  6
CONTINUOUS
  7
STANDARD
 71
1
 72
1
 10
86.7655153144
 20
259.0464192416
 30
0.0
 11
1.0
 21
0.0
 31
0.0
 44
0.9
  1
 4 
 40
2.0
 41
7.0714285714
  0
ENDBLK
  5
23A
100
AcDbEntity
  8
0
  6
BYBLOCK
 62
0
100
AcDbBlockEnd
  0
BLOCK
  5
23B
100
AcDbEntity
  8
0
100
AcDbBlockBegin
 62
2
  6
CONTINUOUS
  2
BALLOON_BL2
 70
64
 10
101.325170828
 20
258.0464192416
  3
BALLOON_BL2
  1

  0
CIRCLE
  5
23C
100
AcDbEntity
  8
0
100
AcDbCircle
 62
2
  6
CONTINUOUS
 10
101.325170828
 20
258.0464192416
 40
3.5604926184
  0
MTEXT
  5
23D
100
AcDbEntity
  8
0
100
AcDbMText
 62
2
  6
CONTINUOUS
  7
STANDARD
 71
1
 72
1
 10
98.9680279709
 20
259.0464192416
 30
0.0
 11
1.0
 21
0.0
 31
0.0
 44
0.9
  1
 6 
 40
2.0
 41
7.0714285714
  0
ENDBLK
  5
23E
100
AcDbEntity
  8
0
  6
BYBLOCK
 62
0
100
AcDbBlockEnd
  0
BLOCK
  5
23F
100
AcDbEntity
  8
0
100
AcDbBlockBegin
 62
2
  6
CONTINUOUS
  2
BALLOON_BL1
 70
64
 10
159.3660530928
 20
197.3611912687
  3
BALLOON_BL1
  1

  0
CIRCLE
  5
240
100
AcDbEntity
  8
0
100
AcDbCircle
 62
2
  6
CONTINUOUS
 10
159.3660530928
 20
197.3611912687
 40
3.5604926184
  0
MTEXT
  5
241
100
AcDbEntity
  8
0
100
AcDbMText
 62
2
  6
CONTINUOUS
  7
STANDARD
 71
1
 72
1
 10
157.0089102356
 20
198.3611912687
 30
0.0
 11
1.0
 21
0.0
 31
0.0
 44
0.9
  1
 7 
 40
2.0
 41
7.0714285714
  0
ENDBLK
  5
242
100
AcDbEntity
  8
0
  6
BYBLOCK
 62
0
100
AcDbBlockEnd
  0
BLOCK
  5
243
100
AcDbEntity
  8
0
100
AcDbBlockBegin
 62
2
  6
CONTINUOUS
  2
BALLOON_BL0
 70
64
 10
135.3792792537
 20
258.0464192416
  3
BALLOON_BL0
  1

  0
CIRCLE
  5
244
100
AcDbEntity
  8
0
100
AcDbCircle
 62
2
  6
CONTINUOUS
 10
135.3792792537
 20
258.0464192416
 40
3.5604926184
  0
MTEXT
  5
245
100
AcDbEntity
  8
0
100
AcDbMText
 62
2
  6
CONTINUOUS
  7
STANDARD
 71
1
 72
1
 10
133.0221363966
 20
259.0464192416
 30
0.0
 11
1.0
 21
0.0
 31
0.0
 44
0.9
  1
 8 
 40
2.0
 41
7.0714285714
  0
ENDBLK
  5
246
100
AcDbEntity
  8
0
  6
BYBLOCK
 62
0
100
AcDbBlockEnd
  0
BLOCK
  5
247
100
AcDbEntity
  8
0
100
AcDbBlockBegin
  2
_DOT
 70
64
 10
0.0
 20
0.0
  3
_DOT
  1

  0
LWPOLYLINE
  5
248
100
AcDbEntity
  8
0
  6
BYBLOCK
 62
0
100
AcDbPolyline
 90
2
 70
1
 43
0.2142857143
 10
-0.1071428571
 20
0.0
 42
1.0
 10
0.1071428571
 20
0.0
 42
1.0
  0
LINE
  5
249
100
AcDbEntity
  8
0
  6
BYBLOCK
 62
0
100
AcDbLine
 10
-0.2142857143
 20
0.0
 11
-1.0
 21
0.0
  0
ENDBLK
  5
24A
100
AcDbEntity
  8
0
  6
BYBLOCK
 62
0
100
AcDbBlockEnd
  0
BLOCK
  5
24B
100
AcDbEntity
  8
0
100
AcDbBlockBegin
  2
_FILLED
 70
64
 10
0.0
 20
0.0
  3
_FILLED
  1

  0
SOLID
  5
24C
100
AcDbEntity
  8
0
  6
BYBLOCK
 62
0
100
AcDbTrace
 10
0.0
 20
0.0
 11
-1.0
 21
0.2142857143
 12
-1.0
 22
-0.2142857143
 13
-1.0
 23
-0.2142857143
  0
ENDBLK
  5
24D
100
AcDbEntity
  8
0
  6
BYBLOCK
 62
0
100
AcDbBlockEnd
  0
BLOCK
  5
24E
100
AcDbEntity
  8
0
100
AcDbBlockBegin
  2
*T1
 70
1
 10
0.0
 20
0.0
  3
*T1
  1

  0
LINE
  5
24F
100
AcDbEntity
  8
0
100
AcDbLine
 62
2
  6
CONTINUOUS
 10
0.0
 20
0.0
 11
180.0
 21
0.0
  0
LINE
  5
250
100
AcDbEntity
  8
0
100
AcDbLine
 62
2
  6
CONTINUOUS
 10
0.0
 20
0.0
 11
0.0
 21
-52.0
  0
LINE
  5
251
100
AcDbEntity
  8
0
100
AcDbLine
 62
2
  6
CONTINUOUS
 10
0.0
 20
-10.0
 11
180.0
 21
-10.0
  0
LINE
  5
252
100
AcDbEntity
  8
0
100
AcDbLine
 62
2
  6
CONTINUOUS
 10
0.0
 20
-18.0
 11
65.0
 21
-18.0
  0
LINE
  5
253
100
AcDbEntity
  8
0
100
AcDbLine
 62
2
  6
CONTINUOUS
 10
0.0
 20
-26.0
 11
65.0
 21
-26.0
  0
LINE
  5
254
100
AcDbEntity
  8
0
100
AcDbLine
 62
2
  6
CONTINUOUS
 10
0.0
 20
-34.0
 11
65.0
 21
-34.0
  0
LINE
  5
255
100
AcDbEntity
  8
0
100
AcDbLine
 62
2
  6
CONTINUOUS
 10
120.0
 20
-34.0
 11
180.0
 21
-34.0
  0
LINE
  5
256
100
AcDbEntity
  8
0
100
AcDbLine
 62
2
  6
CONTINUOUS
 10
0.0
 20
-42.0
 11
180.0
 21
-42.0
  0
LINE
  5
257
100
AcDbEntity
  8
0
100
AcDbLine
 62
2
  6
CONTINUOUS
 10
0.0
 20
-52.0
 11
180.0
 21
-52.0
  0
LINE
  5
258
100
AcDbEntity
  8
0
100
AcDbLine
 62
2
  6
CONTINUOUS
 10
20.0
 20
-10.0
 11
20.0
 21
-42.0
  0
LINE
  5
259
100
AcDbEntity
  8
0
100
AcDbLine
 62
2
  6
CONTINUOUS
 10
40.0
 20
-10.0
 11
40.0
 21
-42.0
  0
LINE
  5
25A
100
AcDbEntity
  8
0
100
AcDbLine
 62
2
  6
CONTINUOUS
 10
65.0
 20
0.0
 11
65.0
 21
-42.0
  0
LINE
  5
25B
100
AcDbEntity
  8
0
100
AcDbLine
 62
2
  6
CONTINUOUS
 10
120.0
 20
0.0
 11
120.0
 21
-52.0
  0
LINE
  5
25C
100
AcDbEntity
  8
0
100
AcDbLine
 62
2
  6
CONTINUOUS
 10
135.0
 20
-42.0
 11
135.0
 21
-52.0
  0
LINE
  5
25D
100
AcDbEntity
  8
0
100
AcDbLine
 62
2
  6
CONTINUOUS
 10
150.0
 20
0.0
 11
150.0
 21
-10.0
  0
LINE
  5
25E
100
AcDbEntity
  8
0
100
AcDbLine
 62
2
  6
CONTINUOUS
 10
165.0
 20
0.0
 11
165.0
 21
-10.0
  0
LINE
  5
25F
100
AcDbEntity
  8
0
100
AcDbLine
 62
2
  6
CONTINUOUS
 10
165.0
 20
-34.0
 11
165.0
 21
-52.0
  0
LINE
  5
260
100
AcDbEntity
  8
0
100
AcDbLine
 62
2
  6
CONTINUOUS
 10
180.0
 20
0.0
 11
180.0
 21
-52.0
  0
MTEXT
  5
261
100
AcDbEntity
  8
0
100
AcDbMText
 62
2
  6
CONTINUOUS
  7
TEXTSTYLE_2
 71
1
 72
1
 10
1.4875
 20
-1.0
 30
0.0
 11
1.0
 21
0.0
 31
0.0
 44
0.9
  1
                                                   ISO 1302 Series 2\P \P                                                   ISO 2768-f H
 40
2.0
 41
118.6463878327
  0
MTEXT
  5
262
100
AcDbEntity
  8
0
100
AcDbMText
 62
2
  6
CONTINUOUS
  7
TEXTSTYLE_2
 71
1
 72
1
 10
66.4875
 20
-6.25
 30
0.0
 11
1.0
 21
0.0
 31
0.0
 44
0.9
  1
SUB ASSEMBLY DRAWING
 40
2.0
 41
71.3460076046
  0
MTEXT
  5
263
100
AcDbEntity
  8
0
100
AcDbMText
 62
2
  6
CONTINUOUS
  7
TEXTSTYLE_2
 71
1
 72
1
 10
121.4875
 20
-11.75
 30
0.0
 11
1.0
 21
0.0
 31
0.0
 44
0.72
  1
 \P \PSUBUNIT ASSEMBLY\P \PTORQUE ARM\P \P 
 40
3.0
 41
83.9087452471
  0
MTEXT
  5
264
100
AcDbEntity
  8
0
100
AcDbMText
 62
2
  6
CONTINUOUS
  7
TEXTSTYLE_2
 71
2
 72
1
 10
30.0
 20
-21.0
 30
0.0
 11
1.0
 21
0.0
 31
0.0
 44
0.9
  1
2011-10-26
 40
2.0
 41
30.783269962
  0
MTEXT
  5
265
100
AcDbEntity
  8
0
100
AcDbMText
 62
2
  6
CONTINUOUS
  7
TEXTSTYLE_2
 71
2
 72
1
 10
52.5
 20
-21.0
 30
0.0
 11
1.0
 21
0.0
 31
0.0
 44
0.9
  1
STOESSER
 40
2.0
 41
28.3498098859
  0
MTEXT
  5
266
100
AcDbEntity
  8
0
100
AcDbMText
 62
2
  6
CONTINUOUS
  7
TEXTSTYLE_2
 71
2
 72
1
 10
30.0
 20
-29.0
 30
0.0
 11
1.0
 21
0.0
 31
0.0
 44
0.9
  1
2011-11-09
 40
2.0
 41
30.783269962
  0
MTEXT
  5
267
100
AcDbEntity
  8
0
100
AcDbMText
 62
2
  6
CONTINUOUS
  7
TEXTSTYLE_2
 71
2
 72
1
 10
52.5
 20
-29.0
 30
0.0
 11
1.0
 21
0.0
 31
0.0
 44
0.9
  1
SIERING
 40
2.0
 41
21.9163498099
  0
MTEXT
  5
268
100
AcDbEntity
  8
0
100
AcDbMText
 62
2
  6
CONTINUOUS
  7
TEXTSTYLE_2
 71
2
 72
1
 10
30.0
 20
-37.0
 30
0.0
 11
1.0
 21
0.0
 31
0.0
 44
0.9
  1
2011-11-09
 40
2.0
 41
30.783269962
  0
MTEXT
  5
269
100
AcDbEntity
  8
0
100
AcDbMText
 62
2
  6
CONTINUOUS
  7
TEXTSTYLE_2
 71
2
 72
1
 10
52.5
 20
-37.0
 30
0.0
 11
1.0
 21
0.0
 31
0.0
 44
0.9
  1
VILLAGOMEZ
 40
2.0
 41
35.4980988593
  0
MTEXT
  5
26A
100
AcDbEntity
  8
0
100
AcDbMText
 62
2
  6
CONTINUOUS
  7
TEXTSTYLE_2
 71
2
 72
1
 10
142.5
 20
-37.75
 30
0.0
 11
1.0
 21
0.0
 31
0.0
 44
0.9
  1
178G5919
 40
2.5
 41
33.2699619772
  0
MTEXT
  5
26B
100
AcDbEntity
  8
0
100
AcDbMText
 62
2
  6
CONTINUOUS
  7
TEXTSTYLE_2
 71
2
 72
1
 10
127.5
 20
-43.75
 30
0.0
 11
1.0
 21
0.0
 31
0.0
 44
1.08
  1
 \PA4
 40
2.0
 41
7.2547528517
  0
MTEXT
  5
26C
100
AcDbEntity
  8
0
100
AcDbMText
 62
2
  6
CONTINUOUS
  7
TEXTSTYLE_2
 71
2
 72
1
 10
150.0
 20
-43.75
 30
0.0
 11
1.0
 21
0.0
 31
0.0
 44
1.08
  1
 \P1:1
 40
2.0
 41
7.9087452471
  0
MTEXT
  5
26D
100
AcDbEntity
  8
0
100
AcDbMText
 62
2
  6
CONTINUOUS
  7
TEXTSTYLE_2
 71
2
 72
1
 10
172.5
 20
-43.75
 30
0.0
 11
1.0
 21
0.0
 31
0.0
 44
1.08
  1
 \P1/1
 40
2.0
 41
9.6273764259
  0
ENDBLK
  5
26E
100
AcDbEntity
  8
0
  6
BYBLOCK
 62
0
100
AcDbBlockEnd
  0
BLOCK
  5
26F
100
AcDbEntity
  8
0
100
AcDbBlockBegin
  2
*T2
 70
1
 10
0.0
 20
0.0
  3
*T2
  1

  0
LINE
  5
270
100
AcDbEntity
  8
0
100
AcDbLine
 62
2
  6
CONTINUOUS
 10
0.0
 20
0.0
 11
180.0
 21
0.0
  0
LINE
  5
271
100
AcDbEntity
  8
0
100
AcDbLine
 62
2
  6
CONTINUOUS
 10
0.0
 20
0.0
 11
0.0
 21
45.0
  0
LINE
  5
272
100
AcDbEntity
  8
0
100
AcDbLine
 62
2
  6
CONTINUOUS
 10
0.0
 20
5.0
 11
180.0
 21
5.0
  0
LINE
  5
273
100
AcDbEntity
  8
0
100
AcDbLine
 62
2
  6
CONTINUOUS
 10
0.0
 20
10.0
 11
180.0
 21
10.0
  0
LINE
  5
274
100
AcDbEntity
  8
0
100
AcDbLine
 62
2
  6
CONTINUOUS
 10
0.0
 20
15.0
 11
180.0
 21
15.0
  0
LINE
  5
275
100
AcDbEntity
  8
0
100
AcDbLine
 62
2
  6
CONTINUOUS
 10
0.0
 20
20.0
 11
180.0
 21
20.0
  0
LINE
  5
276
100
AcDbEntity
  8
0
100
AcDbLine
 62
2
  6
CONTINUOUS
 10
0.0
 20
25.0
 11
180.0
 21
25.0
  0
LINE
  5
277
100
AcDbEntity
  8
0
100
AcDbLine
 62
2
  6
CONTINUOUS
 10
0.0
 20
30.0
 11
180.0
 21
30.0
  0
LINE
  5
278
100
AcDbEntity
  8
0
100
AcDbLine
 62
2
  6
CONTINUOUS
 10
0.0
 20
35.0
 11
180.0
 21
35.0
  0
LINE
  5
279
100
AcDbEntity
  8
0
100
AcDbLine
 62
2
  6
CONTINUOUS
 10
0.0
 20
40.0
 11
180.0
 21
40.0
  0
LINE
  5
27A
100
AcDbEntity
  8
0
100
AcDbLine
 62
2
  6
CONTINUOUS
 10
0.0
 20
45.0
 11
180.0
 21
45.0
  0
LINE
  5
27B
100
AcDbEntity
  8
0
100
AcDbLine
 62
2
  6
CONTINUOUS
 10
10.0
 20
0.0
 11
10.0
 21
45.0
  0
LINE
  5
27C
100
AcDbEntity
  8
0
100
AcDbLine
 62
2
  6
CONTINUOUS
 10
20.0
 20
0.0
 11
20.0
 21
45.0
  0
LINE
  5
27D
100
AcDbEntity
  8
0
100
AcDbLine
 62
2
  6
CONTINUOUS
 10
30.0
 20
0.0
 11
30.0
 21
45.0
  0
LINE
  5
27E
100
AcDbEntity
  8
0
100
AcDbLine
 62
2
  6
CONTINUOUS
 10
100.0
 20
0.0
 11
100.0
 21
45.0
  0
LINE
  5
27F
100
AcDbEntity
  8
0
100
AcDbLine
 62
2
  6
CONTINUOUS
 10
110.0
 20
0.0
 11
110.0
 21
45.0
  0
LINE
  5
280
100
AcDbEntity
  8
0
100
AcDbLine
 62
2
  6
CONTINUOUS
 10
160.0
 20
0.0
 11
160.0
 21
45.0
  0
LINE
  5
281
100
AcDbEntity
  8
0
100
AcDbLine
 62
2
  6
CONTINUOUS
 10
180.0
 20
0.0
 11
180.0
 21
45.0
  0
MTEXT
  5
282
100
AcDbEntity
  8
0
100
AcDbMText
 62
2
  6
CONTINUOUS
  7
TEXTSTYLE_3
 71
2
 72
1
 10
5.0
 20
3.5
 30
0.0
 11
1.0
 21
0.0
 31
0.0
 44
0.9
  1
No.
 40
2.0
 41
8.897338403
  0
MTEXT
  5
283
100
AcDbEntity
  8
0
100
AcDbMText
 62
2
  6
CONTINUOUS
  7
TEXTSTYLE_3
 71
2
 72
1
 10
15.0
 20
3.5
 30
0.0
 11
1.0
 21
0.0
 31
0.0
 44
0.9
  1
Pos. 
 40
2.0
 41
12.3954372624
  0
MTEXT
  5
284
100
AcDbEntity
  8
0
100
AcDbMText
 62
2
  6
CONTINUOUS
  7
TEXTSTYLE_3
 71
2
 72
1
 10
25.0
 20
3.5
 30
0.0
 11
1.0
 21
0.0
 31
0.0
 44
0.9
  1
Qty
 40
2.0
 41
8.9125475285
  0
MTEXT
  5
285
100
AcDbEntity
  8
0
100
AcDbMText
 62
2
  6
CONTINUOUS
  7
TEXTSTYLE_3
 71
2
 72
1
 10
65.0
 20
3.5
 30
0.0
 11
1.0
 21
0.0
 31
0.0
 44
0.9
  1
Part Number
 40
2.0
 41
32.5019011407
  0
MTEXT
  5
286
100
AcDbEntity
  8
0
100
AcDbMText
 62
2
  6
CONTINUOUS
  7
TEXTSTYLE_3
 71
2
 72
1
 10
105.0
 20
3.5
 30
0.0
 11
1.0
 21
0.0
 31
0.0
 44
0.9
  1
Rev.
 40
2.0
 41
11.0418250951
  0
MTEXT
  5
287
100
AcDbEntity
  8
0
100
AcDbMText
 62
2
  6
CONTINUOUS
  7
TEXTSTYLE_3
 71
2
 72
1
 10
135.0
 20
3.5
 30
0.0
 11
1.0
 21
0.0
 31
0.0
 44
0.9
  1
Material
 40
2.0
 41
20.9733840304
  0
MTEXT
  5
288
100
AcDbEntity
  8
0
100
AcDbMText
 62
2
  6
CONTINUOUS
  7
TEXTSTYLE_3
 71
2
 72
1
 10
170.0
 20
3.5
 30
0.0
 11
1.0
 21
0.0
 31
0.0
 44
0.9
  1
Mass [kg]
 40
2.0
 41
26.3726235741
  0
MTEXT
  5
289
100
AcDbEntity
  8
0
100
AcDbMText
 62
2
  6
CONTINUOUS
  7
TEXTSTYLE_3
 71
2
 72
1
 10
5.0
 20
8.5
 30
0.0
 11
1.0
 21
0.0
 31
0.0
 44
0.9
  1
1
 40
2.0
 41
3.2091254753
  0
MTEXT
  5
28A
100
AcDbEntity
  8
0
100
AcDbMText
 62
2
  6
CONTINUOUS
  7
TEXTSTYLE_3
 71
2
 72
1
 10
25.0
 20
8.5
 30
0.0
 11
1.0
 21
0.0
 31
0.0
 44
0.9
  1
1
 40
2.0
 41
3.2091254753
  0
MTEXT
  5
28B
100
AcDbEntity
  8
0
100
AcDbMText
 62
2
  6
CONTINUOUS
  7
TEXTSTYLE_3
 71
1
 72
1
 10
30.9
 20
8.5
 30
0.0
 11
1.0
 21
0.0
 31
0.0
 44
0.9
  1
178G5802
 40
2.0
 41
26.6159695817
  0
MTEXT
  5
28C
100
AcDbEntity
  8
0
100
AcDbMText
 62
2
  6
CONTINUOUS
  7
TEXTSTYLE_3
 71
1
 72
1
 10
110.9
 20
8.5
 30
0.0
 11
1.0
 21
0.0
 31
0.0
 44
0.9
  1
X5CrNi18-10
 40
2.0
 41
33.6882129278
  0
MTEXT
  5
28D
100
AcDbEntity
  8
0
100
AcDbMText
 62
2
  6
CONTINUOUS
  7
TEXTSTYLE_3
 71
2
 72
1
 10
170.0
 20
8.5
 30
0.0
 11
1.0
 21
0.0
 31
0.0
 44
0.9
  1
0.021
 40
2.0
 41
14.3269961977
  0
MTEXT
  5
28E
100
AcDbEntity
  8
0
100
AcDbMText
 62
2
  6
CONTINUOUS
  7
TEXTSTYLE_3
 71
2
 72
1
 10
5.0
 20
13.5
 30
0.0
 11
1.0
 21
0.0
 31
0.0
 44
0.9
  1
2
 40
2.0
 41
3.2091254753
  0
MTEXT
  5
28F
100
AcDbEntity
  8
0
100
AcDbMText
 62
2
  6
CONTINUOUS
  7
TEXTSTYLE_3
 71
2
 72
1
 10
25.0
 20
13.5
 30
0.0
 11
1.0
 21
0.0
 31
0.0
 44
0.9
  1
1
 40
2.0
 41
3.2091254753
  0
MTEXT
  5
290
100
AcDbEntity
  8
0
100
AcDbMText
 62
2
  6
CONTINUOUS
  7
TEXTSTYLE_3
 71
1
 72
1
 10
30.9
 20
13.5
 30
0.0
 11
1.0
 21
0.0
 31
0.0
 44
0.9
  1
178G5803
 40
2.0
 41
26.6159695817
  0
MTEXT
  5
291
100
AcDbEntity
  8
0
100
AcDbMText
 62
2
  6
CONTINUOUS
  7
TEXTSTYLE_3
 71
1
 72
1
 10
110.9
 20
13.5
 30
0.0
 11
1.0
 21
0.0
 31
0.0
 44
0.9
  1
POM-C white
 40
2.0
 41
34.7376425856
  0
MTEXT
  5
292
100
AcDbEntity
  8
0
100
AcDbMText
 62
2
  6
CONTINUOUS
  7
TEXTSTYLE_3
 71
2
 72
1
 10
170.0
 20
13.5
 30
0.0
 11
1.0
 21
0.0
 31
0.0
 44
0.9
  1
0.009
 40
2.0
 41
14.3269961977
  0
MTEXT
  5
293
100
AcDbEntity
  8
0
100
AcDbMText
 62
2
  6
CONTINUOUS
  7
TEXTSTYLE_3
 71
2
 72
1
 10
5.0
 20
18.5
 30
0.0
 11
1.0
 21
0.0
 31
0.0
 44
0.9
  1
3
 40
2.0
 41
3.2091254753
  0
MTEXT
  5
294
100
AcDbEntity
  8
0
100
AcDbMText
 62
2
  6
CONTINUOUS
  7
TEXTSTYLE_3
 71
2
 72
1
 10
25.0
 20
18.5
 30
0.0
 11
1.0
 21
0.0
 31
0.0
 44
0.9
  1
1
 40
2.0
 41
3.2091254753
  0
MTEXT
  5
295
100
AcDbEntity
  8
0
100
AcDbMText
 62
2
  6
CONTINUOUS
  7
TEXTSTYLE_3
 71
1
 72
1
 10
30.9
 20
18.5
 30
0.0
 11
1.0
 21
0.0
 31
0.0
 44
0.9
  1
178G5010
 40
2.0
 41
26.6159695817
  0
MTEXT
  5
296
100
AcDbEntity
  8
0
100
AcDbMText
 62
2
  6
CONTINUOUS
  7
TEXTSTYLE_3
 71
1
 72
1
 10
110.9
 20
18.5
 30
0.0
 11
1.0
 21
0.0
 31
0.0
 44
0.9
  1
X2CrNiMo17-12-2 C
 40
2.0
 41
53.0646387833
  0
MTEXT
  5
297
100
AcDbEntity
  8
0
100
AcDbMText
 62
2
  6
CONTINUOUS
  7
TEXTSTYLE_3
 71
2
 72
1
 10
170.0
 20
18.5
 30
0.0
 11
1.0
 21
0.0
 31
0.0
 44
0.9
  1
0.098
 40
2.0
 41
14.3269961977
  0
MTEXT
  5
298
100
AcDbEntity
  8
0
100
AcDbMText
 62
2
  6
CONTINUOUS
  7
TEXTSTYLE_3
 71
2
 72
1
 10
5.0
 20
23.5
 30
0.0
 11
1.0
 21
0.0
 31
0.0
 44
0.9
  1
4
 40
2.0
 41
3.2091254753
  0
MTEXT
  5
299
100
AcDbEntity
  8
0
100
AcDbMText
 62
2
  6
CONTINUOUS
  7
TEXTSTYLE_3
 71
2
 72
1
 10
25.0
 20
23.5
 30
0.0
 11
1.0
 21
0.0
 31
0.0
 44
0.9
  1
1
 40
2.0
 41
3.2091254753
  0
MTEXT
  5
29A
100
AcDbEntity
  8
0
100
AcDbMText
 62
2
  6
CONTINUOUS
  7
TEXTSTYLE_3
 71
1
 72
1
 10
30.9
 20
23.5
 30
0.0
 11
1.0
 21
0.0
 31
0.0
 44
0.9
  1
DIN_125_A10_5
 40
2.0
 41
41.6577946768
  0
MTEXT
  5
29B
100
AcDbEntity
  8
0
100
AcDbMText
 62
2
  6
CONTINUOUS
  7
TEXTSTYLE_3
 71
2
 72
1
 10
170.0
 20
23.5
 30
0.0
 11
1.0
 21
0.0
 31
0.0
 44
0.9
  1
0.004
 40
2.0
 41
14.3269961977
  0
MTEXT
  5
29C
100
AcDbEntity
  8
0
100
AcDbMText
 62
2
  6
CONTINUOUS
  7
TEXTSTYLE_3
 71
2
 72
1
 10
5.0
 20
28.5
 30
0.0
 11
1.0
 21
0.0
 31
0.0
 44
0.9
  1
5
 40
2.0
 41
3.2091254753
  0
MTEXT
  5
29D
100
AcDbEntity
  8
0
100
AcDbMText
 62
2
  6
CONTINUOUS
  7
TEXTSTYLE_3
 71
2
 72
1
 10
25.0
 20
28.5
 30
0.0
 11
1.0
 21
0.0
 31
0.0
 44
0.9
  1
1
 40
2.0
 41
3.2091254753
  0
MTEXT
  5
29E
100
AcDbEntity
  8
0
100
AcDbMText
 62
2
  6
CONTINUOUS
  7
TEXTSTYLE_3
 71
1
 72
1
 10
30.9
 20
28.5
 30
0.0
 11
1.0
 21
0.0
 31
0.0
 44
0.9
  1
DIN_912_M10X50
 40
2.0
 41
46.6159695817
  0
MTEXT
  5
29F
100
AcDbEntity
  8
0
100
AcDbMText
 62
2
  6
CONTINUOUS
  7
TEXTSTYLE_3
 71
1
 72
1
 10
110.9
 20
28.5
 30
0.0
 11
1.0
 21
0.0
 31
0.0
 44
0.9
  1
STAHL_ALLG
 40
2.0
 41
35.36121673
  0
MTEXT
  5
2A0
100
AcDbEntity
  8
0
100
AcDbMText
 62
2
  6
CONTINUOUS
  7
TEXTSTYLE_3
 71
2
 72
1
 10
170.0
 20
28.5
 30
0.0
 11
1.0
 21
0.0
 31
0.0
 44
0.9
  1
0.044
 40
2.0
 41
14.3269961977
  0
MTEXT
  5
2A1
100
AcDbEntity
  8
0
100
AcDbMText
 62
2
  6
CONTINUOUS
  7
TEXTSTYLE_3
 71
2
 72
1
 10
5.0
 20
33.5
 30
0.0
 11
1.0
 21
0.0
 31
0.0
 44
0.9
  1
6
 40
2.0
 41
3.2091254753
  0
MTEXT
  5
2A2
100
AcDbEntity
  8
0
100
AcDbMText
 62
2
  6
CONTINUOUS
  7
TEXTSTYLE_3
 71
2
 72
1
 10
25.0
 20
33.5
 30
0.0
 11
1.0
 21
0.0
 31
0.0
 44
0.9
  1
1
 40
2.0
 41
3.2091254753
  0
MTEXT
  5
2A3
100
AcDbEntity
  8
0
100
AcDbMText
 62
2
  6
CONTINUOUS
  7
TEXTSTYLE_3
 71
1
 72
1
 10
30.9
 20
33.5
 30
0.0
 11
1.0
 21
0.0
 31
0.0
 44
0.9
  1
DIN_934_M10
 40
2.0
 41
36.63878327
  0
MTEXT
  5
2A4
100
AcDbEntity
  8
0
100
AcDbMText
 62
2
  6
CONTINUOUS
  7
TEXTSTYLE_3
 71
1
 72
1
 10
110.9
 20
33.5
 30
0.0
 11
1.0
 21
0.0
 31
0.0
 44
0.9
  1
STAHL_ALLG
 40
2.0
 41
35.36121673
  0
MTEXT
  5
2A5
100
AcDbEntity
  8
0
100
AcDbMText
 62
2
  6
CONTINUOUS
  7
TEXTSTYLE_3
 71
2
 72
1
 10
170.0
 20
33.5
 30
0.0
 11
1.0
 21
0.0
 31
0.0
 44
0.9
  1
0.012
 40
2.0
 41
14.3269961977
  0
MTEXT
  5
2A6
100
AcDbEntity
  8
0
100
AcDbMText
 62
2
  6
CONTINUOUS
  7
TEXTSTYLE_3
 71
2
 72
1
 10
5.0
 20
38.5
 30
0.0
 11
1.0
 21
0.0
 31
0.0
 44
0.9
  1
7
 40
2.0
 41
3.2091254753
  0
MTEXT
  5
2A7
100
AcDbEntity
  8
0
100
AcDbMText
 62
2
  6
CONTINUOUS
  7
TEXTSTYLE_3
 71
2
 72
1
 10
25.0
 20
38.5
 30
0.0
 11
1.0
 21
0.0
 31
0.0
 44
0.9
  1
1
 40
2.0
 41
3.2091254753
  0
MTEXT
  5
2A8
100
AcDbEntity
  8
0
100
AcDbMText
 62
2
  6
CONTINUOUS
  7
TEXTSTYLE_3
 71
1
 72
1
 10
30.9
 20
38.5
 30
0.0
 11
1.0
 21
0.0
 31
0.0
 44
0.9
  1
DIN_985_M10
 40
2.0
 41
36.63878327
  0
MTEXT
  5
2A9
100
AcDbEntity
  8
0
100
AcDbMText
 62
2
  6
CONTINUOUS
  7
TEXTSTYLE_3
 71
1
 72
1
 10
110.9
 20
38.5
 30
0.0
 11
1.0
 21
0.0
 31
0.0
 44
0.9
  1
STAHL_ALLG
 40
2.0
 41
35.36121673
  0
MTEXT
  5
2AA
100
AcDbEntity
  8
0
100
AcDbMText
 62
2
  6
CONTINUOUS
  7
TEXTSTYLE_3
 71
2
 72
1
 10
170.0
 20
38.5
 30
0.0
 11
1.0
 21
0.0
 31
0.0
 44
0.9
  1
0.014
 40
2.0
 41
14.3269961977
  0
MTEXT
  5
2AB
100
AcDbEntity
  8
0
100
AcDbMText
 62
2
  6
CONTINUOUS
  7
TEXTSTYLE_3
 71
2
 72
1
 10
5.0
 20
43.5
 30
0.0
 11
1.0
 21
0.0
 31
0.0
 44
0.9
  1
8
 40
2.0
 41
3.2091254753
  0
MTEXT
  5
2AC
100
AcDbEntity
  8
0
100
AcDbMText
 62
2
  6
CONTINUOUS
  7
TEXTSTYLE_3
 71
2
 72
1
 10
25.0
 20
43.5
 30
0.0
 11
1.0
 21
0.0
 31
0.0
 44
0.9
  1
1
 40
2.0
 41
3.2091254753
  0
MTEXT
  5
2AD
100
AcDbEntity
  8
0
100
AcDbMText
 62
2
  6
CONTINUOUS
  7
TEXTSTYLE_3
 71
1
 72
1
 10
30.9
 20
43.5
 30
0.0
 11
1.0
 21
0.0
 31
0.0
 44
0.9
  1
DIN_9021_10_5X30X2_5
 40
2.0
 41
63.6349809886
  0
MTEXT
  5
2AE
100
AcDbEntity
  8
0
100
AcDbMText
 62
2
  6
CONTINUOUS
  7
TEXTSTYLE_3
 71
1
 72
1
 10
110.9
 20
43.5
 30
0.0
 11
1.0
 21
0.0
 31
0.0
 44
0.9
  1
STAHL_ALLG
 40
2.0
 41
35.36121673
  0
MTEXT
  5
2AF
100
AcDbEntity
  8
0
100
AcDbMText
 62
2
  6
CONTINUOUS
  7
TEXTSTYLE_3
 71
2
 72
1
 10
170.0
 20
43.5
 30
0.0
 11
1.0
 21
0.0
 31
0.0
 44
0.9
  1
0.012
 40
2.0
 41
14.3269961977
  0
ENDBLK
  5
2B0
100
AcDbEntity
  8
0
  6
BYBLOCK
 62
0
100
AcDbBlockEnd
  0
ENDSEC
  0
SECTION
  2
ENTITIES
  0
HATCH
  5
2B1
100
AcDbEntity
  8
0
100
AcDbHatch
 62
2
  6
CONTINUOUS
 10
0.0
 20
0.0
 30
0.0
210
0.0
220
0.0
230
1.0
  2
default__1
 70
0
 71
0
 91
1
 92
1
 93
6
 72
1
 10
108.3660530928
 20
188.7264192416
 11
83.3660530928
 21
188.7264192416
 72
1
 10
83.3660530928
 20
188.7264192416
 11
83.3660530928
 21
192.2264192416
 72
1
 10
83.3660530928
 20
192.2264192416
 11
106.3660530928
 21
192.2264192416
 72
1
 10
106.3660530928
 20
192.2264192416
 11
106.3660530928
 21
195.7264192416
 72
1
 10
106.3660530928
 20
195.7264192416
 11
108.3660530928
 21
195.7264192416
 72
1
 10
108.3660530928
 20
195.7264192416
 11
108.3660530928
 21
188.7264192416
 97
0
 75
0
 76
0
 52
45.0
 41
1.5410478814
 77
0
 78
1
 53
45.0
 43
0.0
 44
0.0
 45
-1.0896854071
 46
1.0896854071
 79
0
 98
1
 10
0.0
 20
0.0
  0
HATCH
  5
2B2
100
AcDbEntity
  8
0
100
AcDbHatch
 62
2
  6
CONTINUOUS
 10
0.0
 20
0.0
 30
0.0
210
0.0
220
0.0
230
1.0
  2
default__2
 70
0
 71
0
 91
1
 92
1
 93
4
 72
1
 10
106.3660530928
 20
192.2264192416
 11
89.3660530928
 21
192.2264192416
 72
1
 10
89.3660530928
 20
192.2264192416
 11
89.3660530928
 21
195.7264192416
 72
1
 10
89.3660530928
 20
195.7264192416
 11
106.3660530928
 21
195.7264192416
 72
1
 10
106.3660530928
 20
195.7264192416
 11
106.3660530928
 21
192.2264192416
 97
0
 75
0
 76
0
 52
135.0
 41
1.3262305212
 77
0
 78
1
 53
135.0
 43
0.0
 44
0.0
 45
-0.937786595
 46
-0.937786595
 79
0
 98
1
 10
0.0
 20
0.0
  0
HATCH
  5
2B3
100
AcDbEntity
  8
0
100
AcDbHatch
 62
2
  6
CONTINUOUS
 10
0.0
 20
0.0
 30
0.0
210
0.0
220
0.0
230
1.0
  2
default__3
 70
0
 71
0
 91
1
 92
1
 93
4
 72
1
 10
121.3660530928
 20
165.7264192416
 11
118.3660530928
 21
165.7264192416
 72
1
 10
118.3660530928
 20
165.7264192416
 11
118.3660530928
 21
195.7264192416
 72
1
 10
118.3660530928
 20
195.7264192416
 11
121.3660530928
 21
195.7264192416
 72
1
 10
121.3660530928
 20
195.7264192416
 11
121.3660530928
 21
165.7264192416
 97
0
 75
0
 76
0
 52
45.0
 41
1.3269757205
 77
0
 78
1
 53
45.0
 43
0.0
 44
0.0
 45
-0.9383135305
 46
0.9383135305
 79
0
 98
1
 10
0.0
 20
0.0
  0
ACAD_TABLE
  5
2B4
100
AcDbEntity
  8
0
 62
2
  6
CONTINUOUS
100
AcDbBlockReference
  2
*T1
 10
19.9990084602
 20
62.0013505057
 30
0.0
100
AcDbTable
342
       326
343
224
 11
1.0
 21
0.0
 31
0.0
 90
22
 91
6
 92
8
 93
0
 94
0
 95
0
 96
0
141
10.0
141
8.0
141
8.0
141
8.0
141
8.0
141
10.0
142
20.0
142
20.0
142
25.0
142
55.0
142
15.0
142
15.0
142
15.0
142
15.0
171
1
172
0
173
0
174
0
175
3
176
1
 91
33
178
0
145
0.0
301
CELL_VALUE
 90
4
  1
                                                   ISO 1302 Series 2\P \P                                                   ISO 2768-f H
304
ACVALUE_END
170
4
140
2.0
171
1
172
0
173
1
174
0
175
1
176
1
 91
1
178
0
145
0.0
170
1
171
1
172
0
173
1
174
0
175
1
176
1
 91
1
178
0
145
0.0
170
1
171
1
172
0
173
0
174
0
175
1
176
1
 91
33
178
0
145
0.0
301
CELL_VALUE
 90
4
  1
SUB ASSEMBLY DRAWING
304
ACVALUE_END
170
7
140
2.0
171
1
172
0
173
0
174
0
175
2
176
1
 91
33
178
0
145
0.0
301
CELL_VALUE
 90
4
  1
 
304
ACVALUE_END
170
7
140
3.5
171
1
172
0
173
1
174
0
175
1
176
1
 91
1
178
0
145
0.0
170
1
171
1
172
0
173
0
174
0
175
1
176
1
 91
33
178
0
145
0.0
301
CELL_VALUE
 90
4
  1
 
304
ACVALUE_END
170
7
140
3.5
171
1
172
0
173
0
174
0
175
1
176
1
 91
33
178
0
145
0.0
301
CELL_VALUE
 90
4
  1
 
304
ACVALUE_END
170
7
140
2.0
171
1
172
0
173
0
174
0
175
1
176
1
 91
33
178
0
145
0.0
301
CELL_VALUE
 90
4
  1
 
304
ACVALUE_END
170
1
140
3.5
171
1
172
0
173
0
174
0
175
1
176
1
 91
33
178
0
145
0.0
301
CELL_VALUE
 90
4
  1
 
304
ACVALUE_END
170
1
140
3.5
171
1
172
0
173
0
174
0
175
1
176
1
 91
33
178
0
145
0.0
301
CELL_VALUE
 90
4
  1
 
304
ACVALUE_END
170
1
140
3.5
171
1
172
0
173
0
174
0
175
1
176
4
 91
33
178
0
145
0.0
301
CELL_VALUE
 90
4
  1
 
304
ACVALUE_END
170
1
140
3.5
171
1
172
0
173
0
174
0
175
4
176
3
 91
33
178
0
145
0.0
301
CELL_VALUE
 90
4
  1
 \P \PSUBUNIT ASSEMBLY\P \PTORQUE ARM\P \P 
304
ACVALUE_END
170
1
140
3.0
171
1
172
0
173
1
174
0
175
1
176
1
 91
1
178
0
145
0.0
170
1
171
1
172
0
173
1
174
0
175
1
176
1
 91
1
178
0
145
0.0
170
1
171
1
172
0
173
1
174
0
175
1
176
1
 91
1
178
0
145
0.0
170
1
171
1
172
0
173
0
174
0
175
1
176
1
 91
33
178
0
145
0.0
301
CELL_VALUE
 90
4
  1
 
304
ACVALUE_END
170
1
140
3.5
171
1
172
0
173
0
174
0
175
1
176
1
 91
33
178
0
145
0.0
301
CELL_VALUE
 90
4
  1
2011-10-26
304
ACVALUE_END
170
5
140
2.0
171
1
172
0
173
0
174
0
175
1
176
1
 91
33
178
0
145
0.0
301
CELL_VALUE
 90
4
  1
STOESSER
304
ACVALUE_END
170
5
140
2.0
171
1
172
0
173
1
174
0
175
1
176
1
 91
1
178
0
145
0.0
170
1
171
1
172
0
173
1
174
0
175
1
176
1
 91
1
178
0
145
0.0
170
1
171
1
172
0
173
1
174
0
175
1
176
1
 91
1
178
0
145
0.0
170
1
171
1
172
0
173
1
174
0
175
1
176
1
 91
1
178
0
145
0.0
170
1
171
1
172
0
173
1
174
0
175
1
176
1
 91
1
178
0
145
0.0
170
1
171
1
172
0
173
0
174
0
175
1
176
1
 91
33
178
0
145
0.0
301
CELL_VALUE
 90
4
  1
 
304
ACVALUE_END
170
1
140
3.5
171
1
172
0
173
0
174
0
175
1
176
1
 91
33
178
0
145
0.0
301
CELL_VALUE
 90
4
  1
2011-11-09
304
ACVALUE_END
170
5
140
2.0
171
1
172
0
173
0
174
0
175
1
176
1
 91
33
178
0
145
0.0
301
CELL_VALUE
 90
4
  1
SIERING
304
ACVALUE_END
170
5
140
2.0
171
1
172
0
173
1
174
0
175
1
176
1
 91
1
178
0
145
0.0
170
1
171
1
172
0
173
1
174
0
175
1
176
1
 91
1
178
0
145
0.0
170
1
171
1
172
0
173
1
174
0
175
1
176
1
 91
1
178
0
145
0.0
170
1
171
1
172
0
173
1
174
0
175
1
176
1
 91
1
178
0
145
0.0
170
1
171
1
172
0
173
1
174
0
175
1
176
1
 91
1
178
0
145
0.0
170
1
171
1
172
0
173
0
174
0
175
1
176
1
 91
33
178
0
145
0.0
301
CELL_VALUE
 90
4
  1
 
304
ACVALUE_END
170
1
140
3.5
171
1
172
0
173
0
174
0
175
1
176
1
 91
33
178
0
145
0.0
301
CELL_VALUE
 90
4
  1
2011-11-09
304
ACVALUE_END
170
5
140
2.0
171
1
172
0
173
0
174
0
175
1
176
1
 91
33
178
0
145
0.0
301
CELL_VALUE
 90
4
  1
VILLAGOMEZ
304
ACVALUE_END
170
5
140
2.0
171
1
172
0
173
1
174
0
175
1
176
1
 91
1
178
0
145
0.0
170
1
171
1
172
0
173
0
174
0
175
3
176
1
 91
33
178
0
145
0.0
301
CELL_VALUE
 90
4
  1
178G5919
304
ACVALUE_END
170
8
140
2.5
171
1
172
0
173
1
174
0
175
1
176
1
 91
1
178
0
145
0.0
170
1
171
1
172
0
173
1
174
0
175
1
176
1
 91
1
178
0
145
0.0
170
1
171
1
172
0
173
0
174
0
175
1
176
1
 91
33
178
0
145
0.0
301
CELL_VALUE
 90
4
  1
 
304
ACVALUE_END
170
8
140
3.5
171
1
172
0
173
0
174
0
175
4
176
1
 91
33
178
0
145
0.0
301
CELL_VALUE
 90
4
  1
 
304
ACVALUE_END
170
1
140
3.5
171
1
172
0
173
1
174
0
175
1
176
1
 91
1
178
0
145
0.0
170
1
171
1
172
0
173
1
174
0
175
1
176
1
 91
1
178
0
145
0.0
170
1
171
1
172
0
173
1
174
0
175
1
176
1
 91
1
178
0
145
0.0
170
1
171
1
172
0
173
0
174
0
175
1
176
1
 91
33
178
0
145
0.0
301
CELL_VALUE
 90
4
  1
 \PA4
304
ACVALUE_END
170
2
140
2.0
171
1
172
0
173
0
174
0
175
2
176
1
 91
33
178
0
145
0.0
301
CELL_VALUE
 90
4
  1
 \P1:1
304
ACVALUE_END
170
2
140
2.0
171
1
172
0
173
1
174
0
175
1
176
1
 91
1
178
0
145
0.0
170
1
171
1
172
0
173
0
174
0
175
1
176
1
 91
33
178
0
145
0.0
301
CELL_VALUE
 90
4
  1
 \P1/1
304
ACVALUE_END
170
2
140
2.0
  0
ACAD_TABLE
  5
2B5
100
AcDbEntity
  8
0
 62
2
  6
CONTINUOUS
100
AcDbBlockReference
  2
*T2
 10
20.0132992556
 20
61.9992795423
 30
0.0
100
AcDbTable
342
       327
343
225
 11
1.0
 21
0.0
 31
0.0
 90
6
 91
9
 92
7
 93
4
 94
0
 95
0
 96
0
 70
1
141
5.0
141
5.0
141
5.0
141
5.0
141
5.0
141
5.0
141
5.0
141
5.0
141
5.0
142
10.0
142
10.0
142
10.0
142
70.0
142
10.0
142
50.0
142
20.0
171
1
172
0
173
0
174
0
175
1
176
1
 91
33
178
0
145
0.0
301
CELL_VALUE
 90
4
  1
No.
304
ACVALUE_END
170
5
140
2.0
171
1
172
0
173
0
174
0
175
1
176
1
 91
33
178
0
145
0.0
301
CELL_VALUE
 90
4
  1
Pos. 
304
ACVALUE_END
170
5
140
2.0
171
1
172
0
173
0
174
0
175
1
176
1
 91
33
178
0
145
0.0
301
CELL_VALUE
 90
4
  1
Qty
304
ACVALUE_END
170
5
140
2.0
171
1
172
0
173
0
174
0
175
1
176
1
 91
33
178
0
145
0.0
301
CELL_VALUE
 90
4
  1
Part Number
304
ACVALUE_END
170
5
140
2.0
171
1
172
0
173
0
174
0
175
1
176
1
 91
33
178
0
145
0.0
301
CELL_VALUE
 90
4
  1
Rev.
304
ACVALUE_END
170
5
140
2.0
171
1
172
0
173
0
174
0
175
1
176
1
 91
33
178
0
145
0.0
301
CELL_VALUE
 90
4
  1
Material
304
ACVALUE_END
170
5
140
2.0
171
1
172
0
173
0
174
0
175
1
176
1
 91
33
178
0
145
0.0
301
CELL_VALUE
 90
4
  1
Mass [kg]
304
ACVALUE_END
170
5
140
2.0
171
1
172
0
173
0
174
0
175
1
176
1
 91
33
178
0
145
0.0
301
CELL_VALUE
 90
4
  1
1
304
ACVALUE_END
170
5
140
2.0
171
1
172
0
173
0
174
0
175
1
176
1
 91
33
178
0
145
0.0
301
CELL_VALUE
 90
4
  1
 
304
ACVALUE_END
170
5
140
3.0
171
1
172
0
173
0
174
0
175
1
176
1
 91
33
178
0
145
0.0
301
CELL_VALUE
 90
4
  1
1
304
ACVALUE_END
170
5
140
2.0
171
1
172
0
173
0
174
0
175
1
176
1
 91
33
178
0
145
0.0
301
CELL_VALUE
 90
4
  1
178G5802
304
ACVALUE_END
170
4
140
2.0
171
1
172
0
173
0
174
0
175
1
176
1
 91
33
178
0
145
0.0
301
CELL_VALUE
 90
4
  1
 
304
ACVALUE_END
170
5
140
2.0
171
1
172
0
173
0
174
0
175
1
176
1
 91
33
178
0
145
0.0
301
CELL_VALUE
 90
4
  1
X5CrNi18-10
304
ACVALUE_END
170
4
140
2.0
171
1
172
0
173
0
174
0
175
1
176
1
 91
33
178
0
145
0.0
301
CELL_VALUE
 90
4
  1
0.021
304
ACVALUE_END
170
5
140
2.0
171
1
172
0
173
0
174
0
175
1
176
1
 91
33
178
0
145
0.0
301
CELL_VALUE
 90
4
  1
2
304
ACVALUE_END
170
5
140
2.0
171
1
172
0
173
0
174
0
175
1
176
1
 91
33
178
0
145
0.0
301
CELL_VALUE
 90
4
  1
 
304
ACVALUE_END
170
5
140
3.0
171
1
172
0
173
0
174
0
175
1
176
1
 91
33
178
0
145
0.0
301
CELL_VALUE
 90
4
  1
1
304
ACVALUE_END
170
5
140
2.0
171
1
172
0
173
0
174
0
175
1
176
1
 91
33
178
0
145
0.0
301
CELL_VALUE
 90
4
  1
178G5803
304
ACVALUE_END
170
4
140
2.0
171
1
172
0
173
0
174
0
175
1
176
1
 91
33
178
0
145
0.0
301
CELL_VALUE
 90
4
  1
 
304
ACVALUE_END
170
5
140
2.0
171
1
172
0
173
0
174
0
175
1
176
1
 91
33
178
0
145
0.0
301
CELL_VALUE
 90
4
  1
POM-C white
304
ACVALUE_END
170
4
140
2.0
171
1
172
0
173
0
174
0
175
1
176
1
 91
33
178
0
145
0.0
301
CELL_VALUE
 90
4
  1
0.009
304
ACVALUE_END
170
5
140
2.0
171
1
172
0
173
0
174
0
175
1
176
1
 91
33
178
0
145
0.0
301
CELL_VALUE
 90
4
  1
3
304
ACVALUE_END
170
5
140
2.0
171
1
172
0
173
0
174
0
175
1
176
1
 91
33
178
0
145
0.0
301
CELL_VALUE
 90
4
  1
 
304
ACVALUE_END
170
5
140
3.0
171
1
172
0
173
0
174
0
175
1
176
1
 91
33
178
0
145
0.0
301
CELL_VALUE
 90
4
  1
1
304
ACVALUE_END
170
5
140
2.0
171
1
172
0
173
0
174
0
175
1
176
1
 91
33
178
0
145
0.0
301
CELL_VALUE
 90
4
  1
178G5010
304
ACVALUE_END
170
4
140
2.0
171
1
172
0
173
0
174
0
175
1
176
1
 91
33
178
0
145
0.0
301
CELL_VALUE
 90
4
  1
 
304
ACVALUE_END
170
5
140
2.0
171
1
172
0
173
0
174
0
175
1
176
1
 91
33
178
0
145
0.0
301
CELL_VALUE
 90
4
  1
X2CrNiMo17-12-2 C
304
ACVALUE_END
170
4
140
2.0
171
1
172
0
173
0
174
0
175
1
176
1
 91
33
178
0
145
0.0
301
CELL_VALUE
 90
4
  1
0.098
304
ACVALUE_END
170
5
140
2.0
171
1
172
0
173
0
174
0
175
1
176
1
 91
33
178
0
145
0.0
301
CELL_VALUE
 90
4
  1
4
304
ACVALUE_END
170
5
140
2.0
171
1
172
0
173
0
174
0
175
1
176
1
 91
33
178
0
145
0.0
301
CELL_VALUE
 90
4
  1
 
304
ACVALUE_END
170
5
140
3.0
171
1
172
0
173
0
174
0
175
1
176
1
 91
33
178
0
145
0.0
301
CELL_VALUE
 90
4
  1
1
304
ACVALUE_END
170
5
140
2.0
171
1
172
0
173
0
174
0
175
1
176
1
 91
33
178
0
145
0.0
301
CELL_VALUE
 90
4
  1
DIN_125_A10_5
304
ACVALUE_END
170
4
140
2.0
171
1
172
0
173
0
174
0
175
1
176
1
 91
33
178
0
145
0.0
301
CELL_VALUE
 90
4
  1
 
304
ACVALUE_END
170
5
140
2.0
171
1
172
0
173
0
174
0
175
1
176
1
 91
33
178
0
145
0.0
301
CELL_VALUE
 90
4
  1
 
304
ACVALUE_END
170
4
140
3.0
171
1
172
0
173
0
174
0
175
1
176
1
 91
33
178
0
145
0.0
301
CELL_VALUE
 90
4
  1
0.004
304
ACVALUE_END
170
5
140
2.0
171
1
172
0
173
0
174
0
175
1
176
1
 91
33
178
0
145
0.0
301
CELL_VALUE
 90
4
  1
5
304
ACVALUE_END
170
5
140
2.0
171
1
172
0
173
0
174
0
175
1
176
1
 91
33
178
0
145
0.0
301
CELL_VALUE
 90
4
  1
 
304
ACVALUE_END
170
5
140
3.0
171
1
172
0
173
0
174
0
175
1
176
1
 91
33
178
0
145
0.0
301
CELL_VALUE
 90
4
  1
1
304
ACVALUE_END
170
5
140
2.0
171
1
172
0
173
0
174
0
175
1
176
1
 91
33
178
0
145
0.0
301
CELL_VALUE
 90
4
  1
DIN_912_M10X50
304
ACVALUE_END
170
4
140
2.0
171
1
172
0
173
0
174
0
175
1
176
1
 91
33
178
0
145
0.0
301
CELL_VALUE
 90
4
  1
 
304
ACVALUE_END
170
5
140
2.0
171
1
172
0
173
0
174
0
175
1
176
1
 91
33
178
0
145
0.0
301
CELL_VALUE
 90
4
  1
STAHL_ALLG
304
ACVALUE_END
170
4
140
2.0
171
1
172
0
173
0
174
0
175
1
176
1
 91
33
178
0
145
0.0
301
CELL_VALUE
 90
4
  1
0.044
304
ACVALUE_END
170
5
140
2.0
171
1
172
0
173
0
174
0
175
1
176
1
 91
33
178
0
145
0.0
301
CELL_VALUE
 90
4
  1
6
304
ACVALUE_END
170
5
140
2.0
171
1
172
0
173
0
174
0
175
1
176
1
 91
33
178
0
145
0.0
301
CELL_VALUE
 90
4
  1
 
304
ACVALUE_END
170
5
140
3.0
171
1
172
0
173
0
174
0
175
1
176
1
 91
33
178
0
145
0.0
301
CELL_VALUE
 90
4
  1
1
304
ACVALUE_END
170
5
140
2.0
171
1
172
0
173
0
174
0
175
1
176
1
 91
33
178
0
145
0.0
301
CELL_VALUE
 90
4
  1
DIN_934_M10
304
ACVALUE_END
170
4
140
2.0
171
1
172
0
173
0
174
0
175
1
176
1
 91
33
178
0
145
0.0
301
CELL_VALUE
 90
4
  1
 
304
ACVALUE_END
170
5
140
2.0
171
1
172
0
173
0
174
0
175
1
176
1
 91
33
178
0
145
0.0
301
CELL_VALUE
 90
4
  1
STAHL_ALLG
304
ACVALUE_END
170
4
140
2.0
171
1
172
0
173
0
174
0
175
1
176
1
 91
33
178
0
145
0.0
301
CELL_VALUE
 90
4
  1
0.012
304
ACVALUE_END
170
5
140
2.0
171
1
172
0
173
0
174
0
175
1
176
1
 91
33
178
0
145
0.0
301
CELL_VALUE
 90
4
  1
7
304
ACVALUE_END
170
5
140
2.0
171
1
172
0
173
0
174
0
175
1
176
1
 91
33
178
0
145
0.0
301
CELL_VALUE
 90
4
  1
 
304
ACVALUE_END
170
5
140
3.0
171
1
172
0
173
0
174
0
175
1
176
1
 91
33
178
0
145
0.0
301
CELL_VALUE
 90
4
  1
1
304
ACVALUE_END
170
5
140
2.0
171
1
172
0
173
0
174
0
175
1
176
1
 91
33
178
0
145
0.0
301
CELL_VALUE
 90
4
  1
DIN_985_M10
304
ACVALUE_END
170
4
140
2.0
171
1
172
0
173
0
174
0
175
1
176
1
 91
33
178
0
145
0.0
301
CELL_VALUE
 90
4
  1
 
304
ACVALUE_END
170
5
140
2.0
171
1
172
0
173
0
174
0
175
1
176
1
 91
33
178
0
145
0.0
301
CELL_VALUE
 90
4
  1
STAHL_ALLG
304
ACVALUE_END
170
4
140
2.0
171
1
172
0
173
0
174
0
175
1
176
1
 91
33
178
0
145
0.0
301
CELL_VALUE
 90
4
  1
0.014
304
ACVALUE_END
170
5
140
2.0
171
1
172
0
173
0
174
0
175
1
176
1
 91
33
178
0
145
0.0
301
CELL_VALUE
 90
4
  1
8
304
ACVALUE_END
170
5
140
2.0
171
1
172
0
173
0
174
0
175
1
176
1
 91
33
178
0
145
0.0
301
CELL_VALUE
 90
4
  1
 
304
ACVALUE_END
170
5
140
3.0
171
1
172
0
173
0
174
0
175
1
176
1
 91
33
178
0
145
0.0
301
CELL_VALUE
 90
4
  1
1
304
ACVALUE_END
170
5
140
2.0
171
1
172
0
173
0
174
0
175
1
176
1
 91
33
178
0
145
0.0
301
CELL_VALUE
 90
4
  1
DIN_9021_10_5X30X2_5
304
ACVALUE_END
170
4
140
2.0
171
1
172
0
173
0
174
0
175
1
176
1
 91
33
178
0
145
0.0
301
CELL_VALUE
 90
4
  1
 
304
ACVALUE_END
170
5
140
2.0
171
1
172
0
173
0
174
0
175
1
176
1
 91
33
178
0
145
0.0
301
CELL_VALUE
 90
4
  1
STAHL_ALLG
304
ACVALUE_END
170
4
140
2.0
171
1
172
0
173
0
174
0
175
1
176
1
 91
33
178
0
145
0.0
301
CELL_VALUE
 90
4
  1
0.012
304
ACVALUE_END
170
5
140
2.0
  0
LEADER
  5
2B6
100
AcDbEntity
  8
0
100
AcDbLeader
 62
2
  6
CONTINUOUS
  3
STANDARD
 71
1
 72
0
 73
2
 75
0
 76
2
 10
127.8238885866
 20
213.8910528475
 30
0.0
 10
134.7787736015
 20
254.5369320074
 30
0.0
340
2B7
1001
ACAD
1000
DSTYLE
1002
{
1070
77
1070
0
1070
341
1005
21A
1002
}
  0
INSERT
  5
2B7
102
{ACAD_REACTORS
330
2B6
102
}
100
AcDbEntity
  8
0
100
AcDbBlockReference
 62
2
  6
CONTINUOUS
  2
BALLOON_BL0
 10
135.3792792537
 20
258.0464192416
  0
LEADER
  5
2B8
100
AcDbEntity
  8
0
100
AcDbLeader
 62
2
  6
CONTINUOUS
  3
STANDARD
 71
1
 72
0
 73
2
 75
0
 76
2
 10
137.6166432301
 20
198.8582503377
 30
0.0
 10
155.8139651921
 20
197.6056891856
 30
0.0
340
2B9
1001
ACAD
1000
DSTYLE
1002
{
1070
77
1070
0
1070
341
1005
21A
1002
}
  0
INSERT
  5
2B9
102
{ACAD_REACTORS
330
2B8
102
}
100
AcDbEntity
  8
0
100
AcDbBlockReference
 62
2
  6
CONTINUOUS
  2
BALLOON_BL1
 10
159.3660530928
 20
197.3611912687
  0
LEADER
  5
2BA
100
AcDbEntity
  8
0
100
AcDbLeader
 62
2
  6
CONTINUOUS
  3
STANDARD
 71
1
 72
0
 73
2
 75
0
 76
2
 10
112.526135382
 20
209.4828148269
 30
0.0
 10
102.1253730365
 20
254.5770123599
 30
0.0
340
2BB
1001
ACAD
1000
DSTYLE
1002
{
1070
77
1070
0
1070
341
1005
21A
1002
}
  0
INSERT
  5
2BB
102
{ACAD_REACTORS
330
2BA
102
}
100
AcDbEntity
  8
0
100
AcDbBlockReference
 62
2
  6
CONTINUOUS
  2
BALLOON_BL2
 10
101.325170828
 20
258.0464192416
  0
LEADER
  5
2BC
100
AcDbEntity
  8
0
100
AcDbLeader
 62
2
  6
CONTINUOUS
  3
STANDARD
 71
1
 72
0
 73
2
 75
0
 76
2
 10
109.4652681152
 20
210.996949463
 30
0.0
 10
90.5356755921
 20
254.7783174294
 30
0.0
340
2BD
1001
ACAD
1000
DSTYLE
1002
{
1070
77
1070
0
1070
341
1005
21A
1002
}
  0
INSERT
  5
2BD
102
{ACAD_REACTORS
330
2BC
102
}
100
AcDbEntity
  8
0
100
AcDbBlockReference
 62
2
  6
CONTINUOUS
  2
BALLOON_BL3
 10
89.1226581716
 20
258.0464192416
  0
LEADER
  5
2BE
100
AcDbEntity
  8
0
100
AcDbLeader
 62
2
  6
CONTINUOUS
  3
STANDARD
 71
1
 72
0
 73
2
 75
0
 76
2
 10
121.1163163417
 20
180.4049759222
 30
0.0
 10
155.8748404573
 20
182.0013431815
 30
0.0
340
2BF
1001
ACAD
1000
DSTYLE
1002
{
1070
77
1070
0
1070
341
1005
21A
1002
}
  0
INSERT
  5
2BF
102
{ACAD_REACTORS
330
2BE
102
}
100
AcDbEntity
  8
0
100
AcDbBlockReference
 62
2
  6
CONTINUOUS
  2
BALLOON_BL4
 10
159.3660530928
 20
182.1616853619
  0
LEADER
  5
2C0
100
AcDbEntity
  8
0
100
AcDbLeader
 62
2
  6
CONTINUOUS
  3
STANDARD
 71
1
 72
0
 73
2
 75
0
 76
2
 10
83.6155552364
 20
191.5142585061
 30
0.0
 10
62.5994552551
 20
192.842565834
 30
0.0
340
2C1
1001
ACAD
1000
DSTYLE
1002
{
1070
77
1070
0
1070
341
1005
21A
1002
}
  0
INSERT
  5
2C1
102
{ACAD_REACTORS
330
2C0
102
}
100
AcDbEntity
  8
0
100
AcDbBlockReference
 62
2
  6
CONTINUOUS
  2
BALLOON_BL5
 10
59.0460530928
 20
193.0671560355
  0
LEADER
  5
2C2
100
AcDbEntity
  8
0
100
AcDbLeader
 62
2
  6
CONTINUOUS
  3
STANDARD
 71
1
 72
0
 73
2
 75
0
 76
2
 10
95.1470308806
 20
195.6634466081
 30
0.0
 10
62.3022670783
 20
204.2123859914
 30
0.0
340
2C3
1001
ACAD
1000
DSTYLE
1002
{
1070
77
1070
0
1070
341
1005
21A
1002
}
  0
INSERT
  5
2C3
102
{ACAD_REACTORS
330
2C2
102
}
100
AcDbEntity
  8
0
100
AcDbBlockReference
 62
2
  6
CONTINUOUS
  2
BALLOON_BL6
 10
59.0460530928
 20
205.0599237039
  0
LEADER
  5
2C4
100
AcDbEntity
  8
0
100
AcDbLeader
 62
2
  6
CONTINUOUS
  3
STANDARD
 71
1
 72
0
 73
0
 75
0
 40
3.0
 41
23.0
 76
3
 10
125.3660530928
 20
166.0561107232
 30
0.0
 10
137.783990003
 20
151.669741718
 30
0.0
 10
143.783990003
 20
151.669741718
 30
0.0
340
2C5
1001
ACAD
1000
DSTYLE
1002
{
1070
77
1070
0
1002
}
  0
MTEXT
  5
2C5
102
{ACAD_REACTORS
330
2C4
102
}
100
AcDbEntity
  8
0
100
AcDbMText
 62
2
  6
CONTINUOUS
  7
STANDARD
 71
1
 72
1
 10
143.783990003
 20
153.169741718
 30
0.0
 11
1.0
 21
0.0
 31
0.0
 44
0.9
  1
rigid frame\Presponsible customer
 40
3.0
 41
62.1428571429
  0
LEADER
  5
2C6
100
AcDbEntity
  8
0
100
AcDbLeader
 62
2
  6
CONTINUOUS
  3
STANDARD
 71
1
 72
0
 73
2
 75
0
 76
2
 10
139.1617471697
 20
201.0822804533
 30
0.0
 10
156.509943942
 20
213.3165356663
 30
0.0
340
2C7
1001
ACAD
1000
DSTYLE
1002
{
1070
77
1070
0
1070
341
1005
21A
1002
}
  0
INSERT
  5
2C7
102
{ACAD_REACTORS
330
2C6
102
}
100
AcDbEntity
  8
0
100
AcDbBlockReference
 62
2
  6
CONTINUOUS
  2
BALLOON_BL7
 10
159.3660530928
 20
215.3307143573
  0
LINE
  5
2C8
100
AcDbEntity
  8
0
100
AcDbLine
 62
7
  6
CONTINUOUS
 10
0.0
 20
0.0
 11
210.0
 21
0.0
  0
LINE
  5
2C9
100
AcDbEntity
  8
0
100
AcDbLine
 62
7
  6
CONTINUOUS
 10
0.0
 20
0.0
 11
0.0
 21
297.0
  0
LINE
  5
2CA
100
AcDbEntity
  8
DEFAULT_3
100
AcDbLine
 62
7
420
1842204
  6
PHANTOM
 10
121.3660530928
 20
180.7264192416
 11
121.3660530928
 21
147.7123855432
  0
LINE
  5
2CB
100
AcDbEntity
  8
DEFAULT_3
100
AcDbLine
 62
7
420
1842204
  6
PHANTOM
 10
121.3660530928
 20
195.7264192416
 11
121.3660530928
 21
252.4852776898
  0
LINE
  5
2CC
100
AcDbEntity
  8
DEFAULT_3
100
AcDbLine
 62
7
420
1842204
  6
PHANTOM
 10
125.3660530928
 20
186.2264192416
 11
125.3660530928
 21
147.5531562238
  0
LINE
  5
2CD
100
AcDbEntity
  8
DEFAULT_3
100
AcDbLine
 62
7
420
1842204
  6
PHANTOM
 10
125.3660530928
 20
216.2264192416
 11
125.3660530928
 21
252.6445070092
  0
LINE
  5
2CE
100
AcDbEntity
  8
DEFAULT_3
100
AcDbLine
 62
7
420
1842204
  6
PHANTOM
 10
121.3660530928
 20
195.7264192416
 11
125.3660530928
 21
195.7264192416
  0
LINE
  5
2CF
100
AcDbEntity
  8
DEFAULT_3
100
AcDbLine
 62
7
420
1842204
  6
PHANTOM
 10
121.3926282029
 20
206.6228869019
 11
125.3926282029
 21
206.6228869019
  0
LINE
  5
2D0
100
AcDbEntity
  8
0
100
AcDbLine
 62
7
  6
CONTINUOUS
 10
210.0
 20
0.0
 11
210.0
 21
297.0
  0
LINE
  5
2D1
100
AcDbEntity
  8
0
100
AcDbLine
 62
7
  6
CONTINUOUS
 10
0.0
 20
297.0
 11
210.0
 21
297.0
  0
LINE
  5
2D2
100
AcDbEntity
  8
0
100
AcDbLine
 62
7
  6
CONTINUOUS
 10
118.3660530928
 20
164.7538165019
 11
121.3660530928
 21
164.7538165019
  0
LINE
  5
2D3
100
AcDbEntity
  8
0
100
AcDbLine
 62
9
  6
CONTINUOUS
 10
118.3660530928
 20
165.0780174151
 11
121.3660530928
 21
165.0780174151
  0
LINE
  5
2D4
100
AcDbEntity
  8
0
100
AcDbLine
 62
7
  6
CONTINUOUS
 10
121.3660530928
 20
165.7264192416
 11
118.3660530928
 21
165.7264192416
  0
LINE
  5
2D5
100
AcDbEntity
  8
0
100
AcDbLine
 62
7
  6
CONTINUOUS
 10
79.3660530928
 20
193.2264301702
 11
79.3660530928
 21
209.2264083131
  0
LINE
  5
2D6
100
AcDbEntity
  8
0
100
AcDbLine
 62
7
  6
CONTINUOUS
 10
83.3660530928
 20
213.7264192416
 11
83.3660530928
 21
201.2264192409
  0
LINE
  5
2D7
100
AcDbEntity
  8
0
100
AcDbLine
 62
7
  6
CONTINUOUS
 10
83.3660530928
 20
188.7264192416
 11
83.3660530928
 21
193.2264192416
  0
LINE
  5
2D8
100
AcDbEntity
  8
0
100
AcDbLine
 62
7
  6
CONTINUOUS
 10
89.3660530928
 20
192.2264192416
 11
89.3660530928
 21
201.2264192416
  0
LINE
  5
2D9
100
AcDbEntity
  8
0
100
AcDbLine
 62
7
  6
CONTINUOUS
 10
94.3660530928
 20
201.2264192409
 11
94.3660530928
 21
196.2264192416
  0
LINE
  5
2DA
100
AcDbEntity
  8
0
100
AcDbLine
 62
7
  6
CONTINUOUS
 10
137.8660530928
 20
193.6642414151
 11
134.3660530928
 21
192.7264192416
  0
LINE
  5
2DB
100
AcDbEntity
  8
0
100
AcDbLine
 62
7
  6
CONTINUOUS
 10
127.8660530928
 20
186.2264192416
 11
125.3660530928
 21
186.2264192416
  0
LINE
  5
2DC
100
AcDbEntity
  8
0
100
AcDbLine
 62
7
  6
CONTINUOUS
 10
108.3660530928
 20
188.7264192416
 11
83.3660530928
 21
188.7264192416
  0
LINE
  5
2DD
100
AcDbEntity
  8
0
100
AcDbLine
 62
7
  6
CONTINUOUS
 10
110.3660530928
 20
191.2264192416
 11
108.3660530928
 21
191.2264192416
  0
LINE
  5
2DE
100
AcDbEntity
  8
0
100
AcDbLine
 62
7
  6
CONTINUOUS
 10
128.6252424713
 20
191.4114646654
 11
133.6068637142
 21
191.4114646654
  0
LINE
  5
2DF
100
AcDbEntity
  8
0
100
AcDbLine
 62
7
  6
CONTINUOUS
 10
106.3660530928
 20
192.2264192416
 11
83.3660530928
 21
192.2264192416
  0
LINE
  5
2E0
100
AcDbEntity
  8
0
100
AcDbLine
 62
7
  6
CONTINUOUS
 10
110.3660530928
 20
192.7264192416
 11
118.3660530928
 21
192.7264192416
  0
LINE
  5
2E1
100
AcDbEntity
  8
0
100
AcDbLine
 62
7
  6
CONTINUOUS
 10
79.3660530928
 20
193.2264192416
 11
89.3660530928
 21
193.2264192416
  0
LINE
  5
2E2
100
AcDbEntity
  8
0
100
AcDbLine
 62
7
  6
CONTINUOUS
 10
106.3660530928
 20
192.2264192416
 11
106.3660530928
 21
196.2264192416
  0
LINE
  5
2E3
100
AcDbEntity
  8
0
100
AcDbLine
 62
7
  6
CONTINUOUS
 10
121.3660530928
 20
195.7264192416
 11
118.3660530928
 21
195.7264192416
  0
LINE
  5
2E4
100
AcDbEntity
  8
0
100
AcDbLine
 62
7
  6
CONTINUOUS
 10
108.3660530928
 20
195.7264192416
 11
89.3660530928
 21
195.7264192416
  0
LINE
  5
2E5
100
AcDbEntity
  8
0
100
AcDbLine
 62
7
  6
CONTINUOUS
 10
89.3660530928
 20
196.2264192416
 11
108.3660530928
 21
196.2264192416
  0
LINE
  5
2E6
100
AcDbEntity
  8
0
100
AcDbLine
 62
7
  6
CONTINUOUS
 10
118.3660530928
 20
196.2264192416
 11
125.3660530928
 21
196.2264192416
  0
LINE
  5
2E7
100
AcDbEntity
  8
0
100
AcDbLine
 62
7
  6
CONTINUOUS
 10
137.8660530928
 20
196.2264192416
 11
138.8660530928
 21
196.2264192416
  0
LINE
  5
2E8
100
AcDbEntity
  8
0
100
AcDbLine
 62
7
  6
CONTINUOUS
 10
133.6068637142
 20
196.3189419535
 11
128.6252424713
 21
196.3189419535
  0
LINE
  5
2E9
100
AcDbEntity
  8
0
100
AcDbLine
 62
2
  6
CONTINUOUS
 10
94.3660530928
 20
196.7264192416
 11
108.3660530928
 21
196.7264192416
  0
LINE
  5
2EA
100
AcDbEntity
  8
0
100
AcDbLine
 62
2
  6
CONTINUOUS
 10
118.3660530928
 20
196.7264192416
 11
125.3660530928
 21
196.7264192416
  0
LINE
  5
2EB
100
AcDbEntity
  8
0
100
AcDbLine
 62
2
  6
CONTINUOUS
 10
137.8660530928
 20
196.7264192416
 11
139.3660530928
 21
196.7264192416
  0
LINE
  5
2EC
100
AcDbEntity
  8
0
100
AcDbLine
 62
7
  6
CONTINUOUS
 10
108.3660530928
 20
188.7264192416
 11
108.3660530928
 21
213.7264192416
  0
LINE
  5
2ED
100
AcDbEntity
  8
0
100
AcDbLine
 62
7
  6
CONTINUOUS
 10
79.3660530928
 20
201.2264192409
 11
139.3660530928
 21
201.2264192409
  0
LINE
  5
2EE
100
AcDbEntity
  8
02__ASM_ALL_AXES
100
AcDbLine
 62
2
  6
CENTER
 10
76.8660530928
 20
201.2264192416
 11
141.8660530928
 21
201.2264192416
  0
LWPOLYLINE
  5
2EF
100
AcDbEntity
  8
0
100
AcDbPolyline
 62
7
  6
CONTINUOUS
 90
5
 70
0
 10
111.1252424713
 20
192.7264192416
 10
110.8487473577
 20
193.6319557945
 10
110.6416152428
 20
194.4751552404
 10
110.4905883164
 20
195.3073640914
 10
110.3967577345
 20
196.1509091792
  0
LINE
  5
2F0
100
AcDbEntity
  8
0
100
AcDbLine
 62
7
  6
CONTINUOUS
 10
110.3967577345
 20
196.1509091792
 11
110.3660530928
 21
196.9764192416
  0
LINE
  5
2F1
100
AcDbEntity
  8
0
100
AcDbLine
 62
7
  6
CONTINUOUS
 10
110.3660530928
 20
211.2264192416
 11
110.3660530928
 21
191.2264192416
  0
LWPOLYLINE
  5
2F2
100
AcDbEntity
  8
0
100
AcDbPolyline
 62
7
  6
CONTINUOUS
 90
6
 70
0
 10
110.3660530928
 20
205.4764192416
 10
110.39686265
 20
206.303341099
 10
110.4909049052
 20
207.1476183625
 10
110.6420458633
 20
207.9796918204
 10
110.8491337549
 20
208.8222845277
 10
111.1252424713
 20
209.7264192416
  0
LWPOLYLINE
  5
2F3
100
AcDbEntity
  8
0
100
AcDbPolyline
 62
7
  6
CONTINUOUS
 90
6
 70
0
 10
110.3660530928
 20
196.9764192416
 10
110.39686265
 20
197.803341099
 10
110.4909049052
 20
198.6476183625
 10
110.6420458633
 20
199.4796918204
 10
110.8491337549
 20
200.3222845277
 10
111.1252424713
 20
201.2264192416
  0
LWPOLYLINE
  5
2F4
100
AcDbEntity
  8
0
100
AcDbPolyline
 62
7
  6
CONTINUOUS
 90
6
 70
0
 10
111.1252424713
 20
201.2264192416
 10
110.8487473577
 20
202.1319557945
 10
110.6416152428
 20
202.9751552404
 10
110.4905883164
 20
203.8073640914
 10
110.3967577345
 20
204.6509091792
 10
110.3660530928
 20
205.4764192416
  0
LINE
  5
2F5
100
AcDbEntity
  8
0
100
AcDbLine
 62
2
  6
CONTINUOUS
 10
121.3660530928
 20
205.7264192416
 11
125.3660530928
 21
205.7264192416
  0
LINE
  5
2F6
100
AcDbEntity
  8
0
100
AcDbLine
 62
2
  6
CONTINUOUS
 10
137.8660530928
 20
205.7264192416
 11
139.3660530928
 21
205.7264192416
  0
LINE
  5
2F7
100
AcDbEntity
  8
0
100
AcDbLine
 62
7
  6
CONTINUOUS
 10
133.6068637142
 20
206.1338965297
 11
128.6252424713
 21
206.1338965297
  0
LINE
  5
2F8
100
AcDbEntity
  8
0
100
AcDbLine
 62
7
  6
CONTINUOUS
 10
121.3660530928
 20
206.2264192416
 11
125.3660530928
 21
206.2264192416
  0
LINE
  5
2F9
100
AcDbEntity
  8
0
100
AcDbLine
 62
7
  6
CONTINUOUS
 10
137.8660530928
 20
206.2264192416
 11
138.8660530928
 21
206.2264192416
  0
LINE
  5
2FA
100
AcDbEntity
  8
0
100
AcDbLine
 62
7
  6
CONTINUOUS
 10
118.3660530928
 20
164.7539220675
 11
118.3660530928
 21
237.7260488302
  0
LWPOLYLINE
  5
2FB
100
AcDbEntity
  8
0
100
AcDbPolyline
 62
7
  6
CONTINUOUS
 90
6
 70
0
 10
118.3660530928
 20
205.4764192416
 10
118.3352435356
 20
204.6494973843
 10
118.2412012804
 20
203.8052201208
 10
118.0900603222
 20
202.9731466628
 10
117.8829724306
 20
202.1305539556
 10
117.6068637142
 20
201.2264192416
  0
LWPOLYLINE
  5
2FC
100
AcDbEntity
  8
0
100
AcDbPolyline
 62
7
  6
CONTINUOUS
 90
6
 70
0
 10
118.3660530928
 20
196.9764192416
 10
118.3352435356
 20
196.1494973843
 10
118.2412012804
 20
195.3052201208
 10
118.0900603222
 20
194.4731466628
 10
117.8829724306
 20
193.6305539556
 10
117.6068637142
 20
192.7264192416
  0
LINE
  5
2FD
100
AcDbEntity
  8
0
100
AcDbLine
 62
7
  6
CONTINUOUS
 10
79.3660530928
 20
209.2264192416
 11
83.3660530928
 21
209.2264192416
  0
LINE
  5
2FE
100
AcDbEntity
  8
0
100
AcDbLine
 62
7
  6
CONTINUOUS
 10
110.3660530928
 20
209.7264192416
 11
118.3660530928
 21
209.7264192416
  0
LINE
  5
2FF
100
AcDbEntity
  8
0
100
AcDbLine
 62
7
  6
CONTINUOUS
 10
128.6252424713
 20
211.0413738179
 11
133.6068637142
 21
211.0413738179
  0
LWPOLYLINE
  5
300
100
AcDbEntity
  8
0
100
AcDbPolyline
 62
7
  6
CONTINUOUS
 90
6
 70
0
 10
117.6068637142
 20
201.2264192416
 10
117.8833588279
 20
200.3208826888
 10
118.0904909428
 20
199.4776832429
 10
118.2415178692
 20
198.6454743919
 10
118.335348451
 20
197.801929304
 10
118.3660530928
 20
196.9764192416
  0
LINE
  5
301
100
AcDbEntity
  8
0
100
AcDbLine
 62
7
  6
CONTINUOUS
 10
121.3660530928
 20
164.7539220675
 11
121.3660530928
 21
196.2264192416
  0
LINE
  5
302
100
AcDbEntity
  8
0
100
AcDbLine
 62
7
  6
CONTINUOUS
 10
121.3660530928
 20
201.2264192409
 11
121.3660530928
 21
237.7260488302
  0
LINE
  5
303
100
AcDbEntity
  8
0
100
AcDbLine
 62
7
  6
CONTINUOUS
 10
128.6252424713
 20
211.0413738179
 11
127.8660530928
 21
209.7264192416
  0
LINE
  5
304
100
AcDbEntity
  8
0
100
AcDbLine
 62
7
  6
CONTINUOUS
 10
110.3660530928
 20
211.2264192416
 11
108.3660530928
 21
211.2264192416
  0
LINE
  5
305
100
AcDbEntity
  8
0
100
AcDbLine
 62
7
  6
CONTINUOUS
 10
83.3660530928
 20
213.7264192416
 11
108.3660530928
 21
213.7264192416
  0
LINE
  5
306
100
AcDbEntity
  8
0
100
AcDbLine
 62
7
  6
CONTINUOUS
 10
127.8660530928
 20
192.7264192416
 11
128.6252424713
 21
191.4114646654
  0
LWPOLYLINE
  5
307
100
AcDbEntity
  8
0
100
AcDbPolyline
 62
7
  6
CONTINUOUS
 90
6
 70
0
 10
128.6252424713
 20
191.4114646654
 10
128.3487473577
 20
191.934276438
 10
128.1416152428
 20
192.421097865
 10
127.9905883164
 20
192.9015738692
 10
127.8967577345
 20
193.3885948527
 10
127.8660530928
 20
193.8652033095
  0
LWPOLYLINE
  5
308
100
AcDbEntity
  8
0
100
AcDbPolyline
 62
7
  6
CONTINUOUS
 90
6
 70
0
 10
117.6068637142
 20
209.7264192416
 10
117.8833588279
 20
208.8208826888
 10
118.0904909428
 20
207.9776832429
 10
118.2415178692
 20
207.1454743919
 10
118.335348451
 20
206.301929304
 10
118.3660530928
 20
205.4764192416
  0
LINE
  5
309
100
AcDbEntity
  8
0
100
AcDbLine
 62
7
  6
CONTINUOUS
 10
125.3660530928
 20
186.2264192416
 11
125.3660530928
 21
216.2264192416
  0
LINE
  5
30A
100
AcDbEntity
  8
0
100
AcDbLine
 62
7
  6
CONTINUOUS
 10
127.8660530928
 20
216.2264192416
 11
125.3660530928
 21
216.2264192416
  0
LINE
  5
30B
100
AcDbEntity
  8
0
100
AcDbLine
 62
7
  6
CONTINUOUS
 10
137.8660530928
 20
208.7885970681
 11
134.3660530928
 21
209.7264192416
  0
LINE
  5
30C
100
AcDbEntity
  8
0
100
AcDbLine
 62
7
  6
CONTINUOUS
 10
127.8660530928
 20
216.2264192416
 11
127.8660530928
 21
186.2264192416
  0
LWPOLYLINE
  5
30D
100
AcDbEntity
  8
0
100
AcDbPolyline
 62
7
  6
CONTINUOUS
 90
6
 70
0
 10
127.8660530928
 20
201.2264192416
 10
127.89686265
 20
202.1812663555
 10
127.9909049052
 20
203.1561537662
 10
128.1420458633
 20
204.1169494361
 10
128.3491337549
 20
205.0898916888
 10
128.6252424713
 20
206.1338965297
  0
LWPOLYLINE
  5
30E
100
AcDbEntity
  8
0
100
AcDbPolyline
 62
7
  6
CONTINUOUS
 90
6
 70
0
 10
127.8660530928
 20
208.5876351738
 10
127.89686265
 20
209.0650587307
 10
127.9909049052
 20
209.5525024361
 10
128.1420458633
 20
210.032900271
 10
128.3491337549
 20
210.5193713974
 10
128.6252424713
 20
211.0413738179
  0
LWPOLYLINE
  5
30F
100
AcDbEntity
  8
0
100
AcDbPolyline
 62
7
  6
CONTINUOUS
 90
6
 70
0
 10
127.8660530928
 20
193.8652033095
 10
127.89686265
 20
194.3426268664
 10
127.9909049052
 20
194.8300705718
 10
128.1420458633
 20
195.3104684067
 10
128.3491337549
 20
195.7969395331
 10
128.6252424713
 20
196.3189419535
  0
LWPOLYLINE
  5
310
100
AcDbEntity
  8
0
100
AcDbPolyline
 62
7
  6
CONTINUOUS
 90
6
 70
0
 10
133.6068637142
 20
196.3189419535
 10
133.8833588279
 20
195.796130181
 10
134.0904909428
 20
195.3093087539
 10
134.2415178692
 20
194.8288327497
 10
134.335348451
 20
194.3418117662
 10
134.3660530928
 20
193.8652033095
  0
LWPOLYLINE
  5
311
100
AcDbEntity
  8
0
100
AcDbPolyline
 62
7
  6
CONTINUOUS
 90
6
 70
0
 10
128.6252424713
 20
206.1338965297
 10
128.3487473577
 20
206.6567083023
 10
128.1416152428
 20
207.1435297294
 10
127.9905883164
 20
207.6240057335
 10
127.8967577345
 20
208.1110267171
 10
127.8660530928
 20
208.5876351738
  0
LWPOLYLINE
  5
312
100
AcDbEntity
  8
0
100
AcDbPolyline
 62
7
  6
CONTINUOUS
 90
6
 70
0
 10
128.6252424713
 20
196.3189419535
 10
128.3487473577
 20
197.3645654986
 10
128.1416152428
 20
198.3382083528
 10
127.9905883164
 20
199.2991603611
 10
127.8967577345
 20
200.2732023281
 10
127.8660530928
 20
201.2264192416
  0
LINE
  5
313
100
AcDbEntity
  8
0
100
AcDbLine
 62
7
  6
CONTINUOUS
 10
134.3660530928
 20
192.7264192416
 11
134.3660530928
 21
209.7264192416
  0
LWPOLYLINE
  5
314
100
AcDbEntity
  8
0
100
AcDbPolyline
 62
7
  6
CONTINUOUS
 90
6
 70
0
 10
134.3660530928
 20
201.2264192416
 10
134.3352435356
 20
200.2715721277
 10
134.2412012804
 20
199.296684717
 10
134.0900603222
 20
198.3358890472
 10
133.8829724306
 20
197.3629467944
 10
133.6068637142
 20
196.3189419535
  0
LWPOLYLINE
  5
315
100
AcDbEntity
  8
0
100
AcDbPolyline
 62
7
  6
CONTINUOUS
 90
6
 70
0
 10
134.3660530928
 20
208.5876351738
 10
134.3352435356
 20
208.1102116169
 10
134.2412012804
 20
207.6227679115
 10
134.0900603222
 20
207.1423700766
 10
133.8829724306
 20
206.6558989502
 10
133.6068637142
 20
206.1338965297
  0
LWPOLYLINE
  5
316
100
AcDbEntity
  8
0
100
AcDbPolyline
 62
7
  6
CONTINUOUS
 90
6
 70
0
 10
134.3660530928
 20
193.8652033095
 10
134.3352435356
 20
193.3877797525
 10
134.2412012804
 20
192.9003360472
 10
134.0900603222
 20
192.4199382122
 10
133.8829724306
 20
191.9334670859
 10
133.6068637142
 20
191.4114646654
  0
LINE
  5
317
100
AcDbEntity
  8
0
100
AcDbLine
 62
7
  6
CONTINUOUS
 10
139.3660530928
 20
196.7264192416
 11
138.8660530928
 21
196.2264192416
  0
LINE
  5
318
100
AcDbEntity
  8
0
100
AcDbLine
 62
7
  6
CONTINUOUS
 10
139.3660530928
 20
205.7264192416
 11
138.8660530928
 21
206.2264192416
  0
LWPOLYLINE
  5
319
100
AcDbEntity
  8
0
100
AcDbPolyline
 62
7
  6
CONTINUOUS
 90
6
 70
0
 10
133.6068637142
 20
206.1338965297
 10
133.8833588279
 20
205.0882729846
 10
134.0904909428
 20
204.1146301305
 10
134.2415178692
 20
203.1536781222
 10
134.335348451
 20
202.1796361551
 10
134.3660530928
 20
201.2264192416
  0
LINE
  5
31A
100
AcDbEntity
  8
0
100
AcDbLine
 62
7
  6
CONTINUOUS
 10
137.8660530928
 20
208.7885970681
 11
137.8660530928
 21
193.6642414151
  0
LINE
  5
31B
100
AcDbEntity
  8
0
100
AcDbLine
 62
7
  6
CONTINUOUS
 10
134.3660530928
 20
192.7264192416
 11
133.6068637142
 21
191.4114646654
  0
LINE
  5
31C
100
AcDbEntity
  8
0
100
AcDbLine
 62
7
  6
CONTINUOUS
 10
134.3660530928
 20
209.7264192416
 11
133.6068637142
 21
211.0413738179
  0
LWPOLYLINE
  5
31D
100
AcDbEntity
  8
0
100
AcDbPolyline
 62
7
  6
CONTINUOUS
 90
6
 70
0
 10
133.6068637142
 20
211.0413738179
 10
133.8833588279
 20
210.5185620453
 10
134.0904909428
 20
210.0317406182
 10
134.2415178692
 20
209.5512646141
 10
134.335348451
 20
209.0642436305
 10
134.3660530928
 20
208.5876351738
  0
LINE
  5
31E
100
AcDbEntity
  8
0
100
AcDbLine
 62
7
  6
CONTINUOUS
 10
138.8660530928
 20
206.2264192416
 11
138.8660530928
 21
196.2264192416
  0
LINE
  5
31F
100
AcDbEntity
  8
0
100
AcDbLine
 62
7
  6
CONTINUOUS
 10
139.3660530928
 20
205.7264192416
 11
139.3660530928
 21
196.7264192416
  0
LINE
  5
320
100
AcDbEntity
  8
0
100
AcDbLine
 62
7
  6
CONTINUOUS
 10
121.3660530928
 20
237.7264192416
 11
118.3660530928
 21
237.7264192416
  0
SPLINE
  5
321
100
AcDbEntity
  8
DEFAULT_3
100
AcDbSpline
 62
7
420
1842204
  6
PHANTOM
 70
0
 71
3
 72
10
 73
6
 74
0
 42
0.0000001
 43
0.0000001
 44
0.0000000001
 40
0.0
 40
0.0
 40
0.0
 40
0.0
 40
0.2491357318
 40
0.5847804347
 40
1.0
 40
1.0
 40
1.0
 40
1.0
 10
121.3660530928
 20
147.7123855432
 30
0.0
 10
121.6678237034
 20
147.327741041
 30
0.0
 10
122.3962611467
 20
147.0469219589
 30
0.0
 10
123.7156606137
 20
147.8489727132
 30
0.0
 10
124.768376241
 20
148.1099527844
 30
0.0
 10
125.3660530928
 20
147.5531562238
 30
0.0
  0
SPLINE
  5
322
100
AcDbEntity
  8
DEFAULT_3
100
AcDbSpline
 62
7
420
1842204
  6
PHANTOM
 70
0
 71
3
 72
10
 73
6
 74
0
 42
0.0000001
 43
0.0000001
 44
0.0000000001
 40
0.0
 40
0.0
 40
0.0
 40
0.0
 40
0.3796554187
 40
0.7346561737
 40
1.0
 40
1.0
 40
1.0
 40
1.0
 10
121.3660530928
 20
252.4852776898
 30
0.0
 10
121.9464275442
 20
251.5238150152
 30
0.0
 10
122.8527171886
 20
251.3586876632
 30
0.0
 10
124.0022240482
 20
252.676807178
 30
0.0
 10
124.909711593
 20
252.8711733933
 30
0.0
 10
125.3660530928
 20
252.6445070092
 30
0.0
  0
ENDSEC
  0
SECTION
  2
OBJECTS
  0
DICTIONARY
  5
C
100
AcDbDictionary
280
0
281
1
  3
ACAD_GROUP
350
D
  3
ACAD_MLINESTYLE
350
17
  3
ACAD_LAYOUT
350
1A
  3
ACAD_PLOTSETTINGS
350
19
  3
ACAD_PLOTSTYLENAME
350
E
  3
ACAD_TABLESTYLE
350
       323
  0
DICTIONARY
  5
D
102
{ACAD_REACTORS
330
C
102
}
100
AcDbDictionary
280
0
281
1
  0
ACDBDICTIONARYWDFLT
  5
E
102
{ACAD_REACTORS
330
C
102
}
100
AcDbDictionary
281
1
  3
Normal
350
F
100
AcDbDictionaryWithDefault
340
F
  0
DICTIONARY
  5
17
102
{ACAD_REACTORS
330
C
102
}
100
AcDbDictionary
280
0
281
1
  3
Standard
350
18
  0
DICTIONARY
  5
323
330
C
100
AcDbDictionary
281
1
  3
Standard
350
       326
  3
Standard1
350
       327
  0
DICTIONARY
  5
19
102
{ACAD_REACTORS
330
C
102
}
100
AcDbDictionary
281
1
  0
DICTIONARY
  5
1A
102
{ACAD_REACTORS
330
C
102
}
100
AcDbDictionary
281
1
  3
Model
350
324
  3
Layout1
350
325
  0
ACDBPLACEHOLDER
  5
F
102
{ACAD_REACTORS
330
E
102
}
  0
MLINESTYLE
  5
18
102
{ACAD_REACTORS
330
17
102
}
100
AcDbMlineStyle
  2
STANDARD
 70
0
  3

 62
256
 51
90.0
 52
90.0
 71
2
 49
0.5
 62
256
  6
BYLAYER
 49
-0.5
 62
256
  6
BYLAYER
  0
LAYOUT
  5
324
102
{ACAD_REACTORS
330
1A
102
}
100
AcDbPlotSettings
  1

  2
none_device
  4

  6

 40
0.0
 41
0.0
 42
0.0
 43
0.0
 44
210.0
 45
297.0
 46
0.0
 47
0.0
 48
0.0
 49
0.0
140
0.0
141
0.0
142
1.0
143
1.0
 70
1024
 72
1
 73
0
 74
0
  7

 75
0
147
1.0
148
0.0
149
0.0
100
AcDbLayout
  1
Model
 70
0
 71
0
 10
0.0
 20
0.0
 11
210.0
 21
297.0
 12
0.0
 22
0.0
 32
0.0
 14
0.0
 24
0.0
 34
0.0
 15
0.0
 25
0.0
 35
0.0
146
0.0
 13
0.0
 23
0.0
 33
0.0
 16
1.0
 26
0.0
 36
0.0
 17
0.0
 27
1.0
 37
0.0
 76
0
330
218
345
0
346
0
  0
LAYOUT
  5
325
102
{ACAD_REACTORS
330
1A
102
}
100
AcDbPlotSettings
  1

  2
none_device
  4

  6

 40
0.0
 41
0.0
 42
0.0
 43
0.0
 44
210.0
 45
297.0
 46
0.0
 47
0.0
 48
0.0
 49
0.0
140
0.0
141
0.0
142
1.0
143
1.0
 70
0
 72
1
 73
0
 74
0
  7

 75
0
147
1.0
148
0.0
149
0.0
100
AcDbLayout
  1
Layout1
 70
0
 71
1
 10
0.0
 20
0.0
 11
210.0
 21
297.0
 12
0.0
 22
0.0
 32
0.0
 14
0.0
 24
0.0
 34
0.0
 15
0.0
 25
0.0
 35
0.0
146
0.0
 13
0.0
 23
0.0
 33
0.0
 16
1.0
 26
0.0
 36
0.0
 17
0.0
 27
1.0
 37
0.0
 76
0
330
219
345
0
346
0
  0
TABLESTYLE
  5
326
102
{ACAD_REACTORS
330
323
330
2B4
102
}
330
323
100
AcDbTableStyle
  3
Standard
 70
0
 71
0
 40
0.06
 41
0.06
280
1
281
1
  7
Standard
140
0.18
170
1
 62
0
 63
7
283
0
  7
Standard
140
0.18
170
1
 62
0
 63
7
283
0
  7
Standard
140
0.18
170
1
 62
0
 63
7
283
0
  0
TABLESTYLE
  5
327
102
{ACAD_REACTORS
330
323
330
2B5
102
}
330
323
100
AcDbTableStyle
  3
Standard1
 70
1
 71
0
 40
0.06
 41
0.06
280
1
281
1
  7
Standard
140
0.18
170
1
 62
0
 63
7
283
0
  7
Standard
140
0.18
170
1
 62
0
 63
7
283
0
  7
Standard
140
0.18
170
1
 62
0
 63
7
283
0
  0
ENDSEC
  0
EOF
